E-Chords
Miracle Legion

Just Say Hello(Tabs)

Miracle Legion

roll up this ad to continue

Key: G
Intro/Bridge 

e|--5-3--0-2---2-0--0-2----| 
B|-----------3----------3--| 
G|-------------------------| 
D|-------------------------| 
A|-------------------------| 
E|-------------------------| 


Verse 

e|---------------------------| 
B|----3---2-2-2--------------| 
G|--0---0---------2---4---2--| 
D|--------------0---0---0----| 
A|---------------------------| 
E|---------------------------| 


Chorus        
                        G 
e|-------------------|--3--| 
B|----0-----0-----0--|--3--| 
G|------0-----0------|--0--| 
D|--3-----3-----3----|--0--| 
A|-------------------|-----| 
E|-------------------|-----| 


Intro 
Verse 
Chorus 
Verse 
Chorus 
Bridge 
Verse 
Chorus 
share this page

See Also: