E-Chords
Miracle Legion

All For The Best(Tabs)

Miracle Legion

roll up this ad to continue

Key: D
Intro 

e|------------------------------| 
B|------------------------------| 
G|------------------------------| 
D|------------------------------| (x4) 
A|-2-4-5-7-5-4-9-9-9-9-9-9-9-9--| 
E|------------------------------| 

Acoustic Rythm Guitar 
Strumming Pattern: D UD UD 

   E   B   A   E         
e|-0---7---5---0---| 
B|-0---7---5---0---| 
G|-1---8---6---1---| 
D|-2---9---7---2---| x4 
A|-2---9---7---2---| 
E|-0---7---5---0---| 

Lead Guitar (Electric) - Same chords, just arpeggiated after each. 
    E            B             A            E 
e|--------------------------------------------------------| 
B|--------------------------------------------------------| 
G|--------------------------------------------------------| 
D|--2---2-----2--9----9-----9--7----7-----7--2---2-----2--|(x4) 
A|--2-2---2------9--9---9------7--7---7------2-2---2------| 
E|--0-------0----7--------7----5--------5----0-------0----| 


Bridge/Solo 

e|-----------------------------------------------------------------------------------------| 
B|-----------------------------------------------------------------------------------------| 
G|-4lr--4-2---2-4lr--4-2---2-4lr--4-2---2-4---------------------4--------------------------| 
D|--------4-------------4-------------4-----7-5-4-----------------7-5-4--------------------| 
A|------------------------------------------------7-5-4-2-0-2-----------7-5-7-9-7-5-7-5-2--| 
E|-----------------------------------------------------------------------------------------| 


Solo 2 

e|----------------------| 
B|--12p0----9-7----5p0--| 
G|--12p0----9-7----5p0--| 
D|----------------------| 
A|----------------------| 
E|----------------------| 

After 'Say you love me' 
e|-------------------| 
B|-------------------| 
G|-------------------| 
D|-------------------| 
A|--2--4-5--4-5-4-2--| 
E|-------------------| 

lr = let ring 



************************************ 

| p  Pull-off 
| lr let ring 

************************************ 
share this page

See Also: