E-Chords
Ministri

Due Dita Nel Cuore(Tabs)

Ministri

roll up this ad to continue

Intro 

E|--------------------------------------------------------|-- 
B|--------------------------------------------------------|-- 
G|--9--9--9--7--7--7--------------------------------------|-- X2 
D|--9--9--9--7--7--7--9-----9--9-----x--x--x--x--6--------|-- 
A|--7--7--7--7--7--7--9-----9--9-----4--4--4--4--4--4-----|-- 
E|-----------------------------------x--x--x--x--x--5-----|-- 


Verse 

E|--------------------------------------|-- 
B|--------------------------------------|-- 
G|--9--------8--------6-----------------|--  X2 
D|--9---X6---8---X6---6---X6---7--------|-- 
A|--7--------6--------4--------7---X6---|-- 
E|-----------------------------5--------|-- 

E|----------------------------------------------------------------- 
B|----------------------------------------------------------------- 
G|--9--------8--------6--------------------------4--------6-------- 
D|--9---X6---8---X6---6---X6---7--------4--------4---X6---6---X6--- 
A|--7--------6--------4--------7---X6---4---X6---2--------4-------- 
E|-----------------------------5--------2-------------------------- 


Chorus 

E|-----------------------------|-- 
B|-----------------------------|-- 
G|--9-----------------6--------|-- X2 
D|--9--------9--------X--------|-- 
A|--7--------9--------4--------|-- 
E|-----------7-----------------|-- 


Verse 

E|--------------------------------------|-- 
B|--------------------------------------|-- 
G|--9--------8--------6-----------------|--  X2 
D|--9---X6---8---X6---6---X6---7--------|-- 
A|--7--------6--------4--------7---X6---|-- 
E|-----------------------------5--------|-- 

E|----------------------------------------------------------------- 
B|----------------------------------------------------------------- 
G|--9--------8--------6--------------------------4--------6-------- 
D|--9---X6---8---X6---6---X6---7--------4--------4---X6---6---X6--- 
A|--7--------6--------4--------7---X6---4---X6---2--------4-------- 
E|-----------------------------5--------2-------------------------- 


Chorus 

E|-----------------------------|-- 
B|-----------------------------|-- 
G|--9-----------------6--------|-- X2 
D|--9--------9--------X--------|-- 
A|--7--------9--------4--------|-- 
E|-----------7-----------------|-- 


Intro 

E|--------------------------------------------------------|-- 
B|--------------------------------------------------------|-- 
G|--9--9--9--7--7--7--------------------------------------|-- X2 
D|--9--9--9--7--7--7--9-----9--9-----x--x--x--x--6--------|-- 
A|--7--7--7--7--7--7--9-----9--9-----4--4--4--4--4--4-----|-- 
E|-----------------------------------x--x--x--x--x--5-----|-- 


Chorus 

E|-----------------------------|-- 
B|-----------------------------|-- 
G|--9-----------------6--------|-- X2 
D|--9--------9--------X--------|-- 
A|--7--------9--------4--------|-- 
E|-----------7-----------------|-- 


Intro 

E|--------------------------------------------------------|-- 
B|--------------------------------------------------------|-- 
G|--9--9--9--7--7--7--------------------------------------|-- X2 
D|--9--9--9--7--7--7--9-----9--9-----x--x--x--x--6--------|-- 
A|--7--7--7--7--7--7--9-----9--9-----4--4--4--4--4--4-----|-- 
E|-----------------------------------x--x--x--x--x--5-----|-- 



************************************ 

| x  Dead note 

************************************ 
share this page

See Also: