Millencolin

Chiquita Chaser(Tabs)

Millencolin

Key: D5

roll up this ad to continue

	        
This song is really very easy to play, as it only consists of 
3 chords : D5, A and E5 (all barrè) 
 
The tabs for these chords are (Just so you know): 
 
 
 
 
The intro goes like this: 
 
|-|---------------------------------------- 
|-|-7--------------------7----------------- 
|-|--7-7-7-----------------7-7-7----------- 
|-|--------9-7--7h9-7------------6-6--6h7-- 
|-|---------------------------------------- 
|-|---------------------------------------- 
 
 
 
Well, the verse is: 
 
(Verse:D5 A E5) 
 
-------------------------------------------------------- 
D5                       A                 E5 
Maybe just because I was newly washed like Brandon Walsh 
D5                 A     E5 
you took notice of me 
-------------------------------------------------------- And so it goes.... 
 
 
Then the chorus with exactly the same chords: 
 
(Chorus:D5 A E) 
 
-------------------------------------------------------- 
D5                      A                E5 
You're not the only one who think I am a chiquita dude... 
D5                      A           E5 
You're not the only one...well I'm afraid I'm not that rude 
-------------------------------------------------------- And on... 
 
 
And finally, the guitar solo  (Repeat 2 times): 
 
|-|-------------------------------------------------------------| 
|-|-7--------7-------------7-----------10-8-7---10-8-7---10-8---| 
|-|---7-7-7----7-7-7-7-------7-7-7------------------------------| 
|-|-------------------------------------------------------------| 
|-|-------------------------------------------------------------| 
|-|-------------------------------------------------------------| 

	        

See Also: