E-Chords
Meters

They All Askd For You(Tabs)

Meters

roll up this ad to continue

Key: E
 

Intro and Vamp 
              E                           Guitar riff filler 
e|---------------------------------------------------------------------------| 
B|------------5-5-4----------------------5--7-8-9----9-8-7-5-----------------| 
G|------------7-8-7----------------------------------------------------------| 
D|------------6-6-6----------------------6--7-8-9----9-8-7-6-----------------| x8 
A|---7---4-6--7---7----4-6-7-------------------------------------------------| 
E|-----7--------7----7-------------------------------------------------------| 


They all ask for you, for who?.... Easy to figure it. Just V and I chord. 
Not gonna write out all the verses.  
     B7                                          E 
e|---------------------------------------------------------------------------| 
B|---7-------------------------------------------9---------------------------| 
G|---9-------------------------------------------9---------------------------| 
D|---7-------------------------------------------9---------------------------| 
A|---9-------------------------------------------7---------------------------| 
E|---7-------------------------------------------------------7-6-4-2-0-------| 

   

Solo  
e|------7------7--------------------7------5-5-------------------------------| 
B|--/9----7-8-9-9-9---/9-9-9-8-7----------------9-7--/9-9-8-7--5-------------| 
G|--------------9-9---/9-9-9-9-8----7h8-8--6-6-------------------------------| 
D|--/9----7-8-9---------------------------------9-7--/9-9-8-7--6-------------| 
A|---------------------------------------------------------------------------| 
E|---------------------------------------------------------------------------| 

e|---------------------------------------------7-----7----5---------7---5----| 
B|-----5----5-5------5---5-5-----5---5-5----------------------9------------9-| 
G|-----------------------------------------7h8---7h8--8---6------7h8- 8-6----| 
D|--5h6--6--7-7--5h6--6--7-7-5h6---6-7-7----------------------9------------9-| 
A|---------------------------------------------------------------------------| 
E|---------------------------------------------------------------------------| 

   End of Solo               Horn Hits  (bum bum bee bee be bum bum) 
e|-----7--5------------------------------------------------------------------| 
B|-----------9-7-5-----------------------------------------------------------| 
G|-7h8----6-------------6-8--9------9-9-8-6------9-----9-9-8-6---------------| 
D|-----------9-7-6-----9-------9--9---------9------9-9---------9-------------| 
A|---------------------------------------------------------------------------| 
E|---------------------------------------------------------------------------| 

Second Solo (2:10) Upon Request... haha 


************************************ 
| /   slide up 
| h   hammer-on 
| p   pull-off 
| +   harmonic 
| b   Bend 
************************************ 
share this page

See Also: