E-Chords
Meters

Soul Island(Tabs)

Meters

roll up this ad to continue

Key: C
Up, up down stroke 
     C 
e|---3----3-3----3----3-3-----3----3-3-----3---3-3----------------------------| 
B|---5----5-5----5----5-5-----5----5-5-----5---5-5----------------------------| 
G|---5----5-5----5----5-5-----5----5-5-----5---5-5----------------------------| 
D|---5----5-5----5----5-5-----5----5-5-----5---5-5----------------------------| x3 
A|---3----3-3----3----3-3-----3----3-3-----3---3-3----------------------------| 
E|----------------------------------------------------------------------------| 

Chorus 
     F                          G 
e|----------------------------------------------------------------------------| 
B|--10---10-10--10---10-10------12---12-12---12---12--12----------------------| 
G|--10---10-10--10---10-10------12---12-12---12---12--12----------------------| 
D|--10---10-10--10---10-10------12---12-12---12---12--12----------------------|  x 2 
A|---8----8--8---8----8--8------10---10-10---10---10--10----------------------| 
E|----------------------------------------------------------------------------| 

Chorus riff (with melody)     F        G 
e|-----/12--12--10--10--12----------------------------------------------------| 
B|----------------------------10--10---12---12-12-----------------------------| 
G|-----/12--12--10--10--12----10--10---12---12-12-----------------------------| 
D|----------------------------10--10---12---12-12-----------------------------|  x4 
A|----------------------------8---8----10---10-10-----------------------------| 
E|----------------------------------------------------------------------------| 

After 2nd Chorus 
e|--------------10--8-----10--8----------------------------------------     -3-----| 
B|-----------8-----------8--------------8-10-10-10------------8-9-9-9-     --5-----| 
G|--------9-------------9--------7-9-10---------------7--9-10---------- x4  -5-----| 
D|----10--------------10-----------------------------------------------     -5-----| 
A|---------------------------------------------------------------------     -3-----| 
E|---------------------------------------------------------------------     -------| 

************************************ 
| /   slide up 
| h   hammer-on 
| p   pull-off 
| +   harmonic 
| b   Bend 
************************************ 
share this page

See Also: