E-Chords
Meters

Out In The Country(Tabs)

Meters

roll up this ad to continue

Key: Em
Intro  (incorporating the melody into the chords) 

     Em      D      Am         Em         D   Am   Bm      Em      D     Am 
e|----7-------10-----------------7--------10-------7------7---------10-------| 
B|---8-10-8--10------8-----------8--10-8--10----8--7-----8--10-8--10-----8---| 
G|---9-------11-----5-----------9---------11---5---7-----9--------11----5----| 
D|---9-------12-----5-----------9---------12---5---7-----9--------12----5----| 
A|---7-------12-----5-----------7---------12---5---7-----7--------12----5----| 
E|---------------------------------------------------------------------------| 

Verse 
e|----33-3------33-3---33-3------------33-3-----33-3----33-3-----------------| 
B|----33-3------33-3---33-3------------33-3-----33-3----33-3-----------------| 
G|----44-4------44-4---44-4------------44-4-----44-4----44-4-----------------| 
D|-----------------------------5-4-------------------------------------------|    
A|---------0-2--------3--------3-2----------0-2-------3-------4--------------| 
E|--3--------------------------------3---------------------------7-----------| 

Same as above (whole step higher) 

e|----55-5-----55-5----55-5----------55-5------55-5----55-5------------------| 
B|----55-5-----55-5----55-5----------55-5------55-5----55-5------------------| 
G|----66-6-----66-6----66-6----------66-6------66-6----66-6------------------| 
D|---------------------------5-4---------------------------------------------|   x4 
A|-----------4------5--------4-2------------4--------5-----------------------| 
E|-4h5-----7----------------------5-------7----------------------------------| 

Back down a whole step 

e|----33-3------33-3---33-3------------33-3-----33-3----33-3-----------------| 
B|----33-3------33-3---33-3------------33-3-----33-3----33-3-----------------| 
G|----44-4------44-4---44-4------------44-4-----44-4----44-4-----------------| 
D|-----------------------------5-4-------------------------------------------|    
A|---------0-2--------3--------3-2----------0-2-------3----------------------| 
E|--3--------------------------------3---------------------------------------| 

0:51 Oooh, ooh ooh 
             C  Bm  Am 
e|---------------------------------------------------------------------------| 
B|-----------5--3---5--------------------------------------------------------| 
G|-----------5--4---5--------------------------------------------------------| 
D|-----------5--4---7--------------------------------------------------------| 
A|-----0-2---3--2---7--------------------------------------------------------| 
E|---3--------------5--------------------------------------------------------| 

Rest of the song Repeats 

Solo/Riff 
e|-----3-3---3---3---3------3-3---3---3---5b---------------------------------| 
B|---5-----5---5---5-----5------5---5---5------------------------------------| 
G|---------------------------------------------------------------------------|   x4 
D|---------------------------------------------------------------------------| 
A|---------------------------------------------------------------------------| 
E|---------------------------------------------------------------------------| 
share this page

See Also: