E-Chords
Meters

Jungle Man(Tabs)

Meters

roll up this ad to continue

Key: F#m
Tuning: Standard 

Verse Riff 

e|---5--8s9-------5-------------------------------------------------------------| 
B|---5--7s8-------5-----7\5-----------------------------------------------------| 
G|---6--8s9-------6-------------------------------------------------------------| 
D|----------------------7\5-----------------------------------------------------| 
A|------------------------------------------------------------------------------| 
E|------------------------------------------------------------------------------| 

In the Jungle!..........I'm the king     
   F#m              C#m                (hits)             
e|-2--2-2-2---------4--4-4-4----------------------------------------------------| 
B|-2--2-2-2---------5--5-5-5----------------------------------------------------| 
G|-2--2-2-2---------6--6-6-6----------------------------------------------------| 
D|-4--4-4-4---------6--6-6-6----------------------------------------------------| 
A|-4--4-4-4---------4--4-4-4----------------------------------------------------| 
E|-2--2-2-2----------------------------3-5--------------------------------------| 

 Riff (listen for rhythm! Tricky!)     Second Part 
e|------------------------------------------------------------------------------| 
B|------------------------------7--5-----------------------------------7--5-----|x2 (some minor 
G|------------------------------7--5-----------------------------------7--5-----|    variations 
D|------------------------------------------------------------------------------|    but you should  
A|-3-------3---small-------3--------------------3-------3--------3--------------|    be good 
E|---5-3-5---5-pause--3---5-3-5--------3h5p3-----5-3-5---5-3-5-----5-3-5--------|    with this) 

************************************ 
| /   slide up 
| h   hammer-on 
| p   pull-off 
| +   harmonic 
| b   Bend 
************************************ 
share this page

See Also: