E-Chords
Mest

Walking On Broken Glass(Tabs)

Mest

Intro: 
 
e|---------------------------------------------------------------------------| 
B|------0--------0--------0---------0--------0--------0--------0--------0----| 
G|---------------------------------------------------------------------------| 
D|----4---4----4---4----4---4-----4---4----4---4----4---4----4---4----4---4--| x2 
A|---------------------------------------------------------------------------| 
E|--4--------4--------2---------2--------0--------0--------2--------2--------| 
 
then 
 
e|------------------|----------------------| 
B|------------------|----------------------| 
G|------------------|--99999999-8888-6666--| 
D|--66-66-66-66-64--|--xxxxxxxx-xxxx-xxxx--| x2 
A|--66-66-66-66-64--|--77777777-6666-4444--|  
E|--44-44-44-44-42--|----------------------| 
 
 
Verse: 
intro, then 
 
e|--------------| 
B|--------------| 
G|--------------| PM 
D|--6--4--2--4--| x2 
A|--6--4--2--4--| 
E|--4--2--0--2--| 
 
 
Pre-Chorus/Chorus: 
 
e|----------------| 
B|----------------| 
G|--4-------------| 
D|--4--4--6--4-2--| 
A|--2--4--6--4-2--| 
E|-----2--4--2-0--| 
 
 
Bridge: 
 
e|----------------|---------------------------------------------| 
B|----------------|---------------------------------------------| 
G|----------------|--9-9-9-9-9-9-9-9---11-11-11-11-11-11-11-11--| 
D|--666666666664--|--x-x-x-x-x-x-x-x----x--x--x--x--x--x--x--x--| 
A|--666666666664--|--7-7-7-7-7-7-7-7----9--9--9--9--9--9--9--9--| 
E|--444444444442--|---------------------------------------------| 
 
 

roll up this ad to continue

share this page

See Also: