E-Chords
M.E.S.T.

Cadillac(Tabs)

M.E.S.T.

Key: C
Intro: 
 
      C     F#   F     F# 
e|---------------------------------| 
B|---------------------------------| 
G|--555555-------------------------| 
D|--555555--4--333333--4-----------|  4X 
A|--333333--4--333333--4-----------| 
E|----------2--111111--2-----------| 
 
    C  G  A  F 
e|---------------------------------| 
B|---------------------------------| 
G|--5------------------------------| 
D|--5--5--7--3---------------------| 1X - Abafado 
A|--3--5--7--3---------------------| 
E|-----3--5--1---------------------| 
 
It's friday night 
what's going on tonight 
 
    C  G  A  F 
e|---------------------------------| 
B|---------------------------------| 
G|--5------------------------------| 
D|--5--5--7--3---------------------| 2X - Power Acorde 
A|--3--5--7--3---------------------| 
E|-----3--5--1---------------------| 
 
I'll see her later on tonight 
 
    C  G  A  F 
e|---------------------------------| 
B|---------------------------------| 
G|--5------------------------------| 
D|--5--5--7--3---------------------| 1X - Abafado 
A|--3--5--7--3---------------------| 
E|-----3--5--1---------------------| 
 
but now it's time to roll 
this somber state is getting old 
 
    C  G  A  F 
e|---------------------------------| 
B|---------------------------------| 
G|--5------------------------------| 
D|--5--5--7--3---------------------| Power Acorde 
A|--3--5--7--3---------------------| 
E|-----3--5--1---------------------| 
 
well i never do what i am told 
 
    C  G  A  F 
e|---------------------------------| 
B|---------------------------------| 
G|--5------------------------------| 
D|--5--5--7--3--5xxx---------------| Power Acorde 
A|--3--5--7--3--5xxx---------------| 
E|-----3--5--1--3xxx---------------| 
 
so now we're gonna roll (and now we're gonna roll) 
 
      C     F#   F     F# 
e|---------------------------------| 
B|---------------------------------| 
G|--555555-------------------------| 
D|--555555--4--333333--4-----------|  4X 
A|--333333--4--333333--4-----------| 
E|----------2--111111--2-----------| 
 
With the top down, seat back, rollin' in my cadillac 
With the top down, seat back, rollin' in my cadillac 
 
    C  G  A  F 
e|---------------------------------| 
B|---------------------------------| 
G|--5------------------------------| 
D|--5--5--7--3---------------------| 1X - Abafado 
A|--3--5--7--3---------------------| 
E|-----3--5--1---------------------| 
 
we order another round 
my girl is nowhere to be found 
 
    C  G  A  F 
e|---------------------------------| 
B|---------------------------------| 
G|--5------------------------------| 
D|--5--5--7--3---------------------| 2X Power Acorde 
A|--3--5--7--3---------------------| 
E|-----3--5--1---------------------| 
 
I hope she gets here soon 
before i'm falling down 
 
    C  G  A  F 
e|---------------------------------| 
B|---------------------------------| 
G|--5------------------------------| 
D|--5--5--7--3---------------------| 1X - Abafado 
A|--3--5--7--3---------------------| 
E|-----3--5--1---------------------| 
 
cuz now im all torn up 
i feel like i might blow up 
 
    C  G  A  F 
e|---------------------------------| 
B|---------------------------------| 
G|--5------------------------------| 
D|--5--5--7--3---------------------| 2X Power Acorde 
A|--3--5--7--3---------------------| 
E|-----3--5--1---------------------| 
 
and then i get word 
my girl's showin' up 
 
    C  G  A  F 
e|---------------------------------| 
B|---------------------------------| 
G|--5------------------------------| 
D|--5--5--7--3--5xxx---------------| Power Acorde 
A|--3--5--7--3--5xxx---------------| 
E|-----3--5--1--3xxx---------------| 
 
so now were gonna roll (and now we gonna roll) 
 
 
      C     F#   F     F# 
e|---------------------------------| 
B|---------------------------------| 
G|--555555-------------------------| 
D|--555555--4--333333--4-----------|  3X 
A|--333333--4--333333--4-----------| 
E|----------2--111111--2-----------| 
 
With the top down, seat back, rollin' in my cadillac 
With the top down, seat back, rollin' in my cadillac 
 
      C     F#   F     F# 
e|---------------------------------| 
B|---------------------------------| 
G|--555555-------------------------| 
D|--555555--4--333333--4-5xxx------|  1X 
A|--333333--4--333333--4-5xxx------| 
E|----------2--111111--2-3xxx------| 
 
 
rollin'... 
 
      C        G        F      G 
e|---------------------------------------| 
B|---------------------------------------| 
G|--555555-------------------------------| 
D|--555555--555555---333333--555555------|  Power Acord 
A|--333333--555555---333333--555555------| 
E|----------333333---111111--333333------| 
 
With the top down, seat back, rollin' in my cadillac 
self control knowing right from wrong is what i lack 
top down, seat back, rollin' in my cadillac 
 
Top down, seat back 
with the top down, seat back 
with the top down, seat back 
top down, seat back 
top down, seat back, rolling in my cadillac 
rolling in my cadillac 
top down seat back 
with the top down, seat back 
with the top down, seat back 
with the top down, seat back 
 
      C        G        F      G 
e|---------------------------------------| 
B|---------------------------------------| 
G|--555555-------------------------------| 
D|--555555--555555---333333--555555------|  Abafado 
A|--333333--555555---333333--555555------| 
E|----------333333---111111--333333------| 
 
top down, seat back 
 
rolling... 
 
      C        G        F      G 
e|---------------------------------------| 
B|---------------------------------------| 
G|--555555-------------------------------| 
D|--555555--555555---333333--555555------|  Power Acord 
A|--333333--555555---333333--555555------| 
E|----------333333---111111--333333------| 
 
 
With the top down, seat back, rollin' in my cadillac 
self control knowing right from wrong is what i lack 
top down, seat back, rollin' in my cadillac 
 
Top down seat back, rollin' in my cadillac 
Top down seat back, rollin' in my cadillac 
 
      C     F#   F     F# 
e|---------------------------------| 
B|---------------------------------| 
G|--555555-------------------------| 
D|--555555--4--333333--4-----------|  4X 
A|--333333--4--333333--4-----------| 
E|----------2--111111--2-----------| 

roll up this ad to continue

share this page

See Also: