E-Chords
Meat Puppets

We Don't Exist(Tabs)

Meat Puppets

roll up this ad to continue

We Don't Exist 
by The Meat Puppets 

STANDARD TUNING 

h = hammer on 
/ = slide 

Intro 
|------------------------------------------| 
|------------------------------------------| 
|------------------------------------------| 
|--5h7777-5h777-5h77-4h5555-2-2h444-0h222--| 
|--0-0000-0-000-0-00-0-0000-0-0-000-0-000--| 
|------------------------------------------| 

|------------------------------------------| 
|------------------------------------------| 
|------------------------------------------| 
|--5h7777-5h777-5h77-4h5555-2-2h333-0h222--| 
|--0-0000-0-000-0-00-0-0000-0-0-000-0-000--| 
|------------------------------------------| 

Last time of intro 
|---------------------------------| 
|---------------------------------| 
|---------------------------------| 
|--5h7777-5h777-5h77----4--4-4-5--| 
|--0-0000-0-000-0-00----4--4-4-5--| 
|---------------------0-2--2-2-3--| 

Verse ('We don't exist...') 
|--------------| 
|--------------| 
|--------------| 
|--0-2--0-2-2--| repeat 
|--0-0--0-0-0--| 
|--------------| 

Pre-Chorus ('What I want out of this....')  
|------------| 
|------------| 
|--7/9--9-9--| 
|--7/9--9-9--| x8 
|--5/7--7-7--| 
|------------| 

Chorus 
|--------------3--2--| 
|--------------3--3--| 
|--2-2---------0--2--| 
|--2-2------0--0--0--| x4 
|--0-0-0-2-3---2-----| 
|--------------3-----| 

Verse 

Pre-Chorus 

2nd Chorus 
|--------------3--2--| 
|--------------3--3--| 
|--2-2---------0--2--| 
|--2-2------0--0--0--| x4 
|--0-0-0-2-3---2-----| 
|--------------3-----| 

|--------------3--3-2------| 
|---------------3----3--3--| 
|--2-2-----------0---------| 
|--2-2------0---------0----| x4 
|--0-0-0-2-3---------------| 
|--------------------------| 

Bridge part 1 
|-----------------------------------------| 
|-----------------------------------------| 
|-----------------------------------------| 
|--12h14-14-14-14--12h14-14-14--12h14-14--| 
|---0--0--0--0--0---0--0--0--0---0--0--0--| 
|-----------------------------------------| 

|-----------------------------------------| 
|-----------------------------------------| 
|-----------------------------------------| 
|--11h12-12-12-12--11h12-12-12--11h12-12--| 
|---0--0--0--0--0---0--0--0--0---0--0--0--| 
|-----------------------------------------| 

Bridge part 2 
|-----------------------------------------| 
|-----------------------------------------| 
|-----------------------------------------| 
|--12h14-14-14-14--12h14-14-14--12h14-14--| 
|---0--0--0--0--0---0--0--0--0---0--0--0--| 
|-----------------------------------------| 

|---------------------------------| 
|---------------------------------| 
|---------------------------------| 
|--16-16-16-16-16-17-17-17-19-19--| 
|---0--0--0--0--0--0--0--0--0--0--| 
|---------------------------------| 

End On 
|------| 
|------| 
|------| 
|--2~--| 
|--0~--| 
|------| 


share this page

See Also: