E-Chords
Meat Puppets

Violet Eyes(Tabs)

Meat Puppets

roll up this ad to continue

Violet Eyes 
by The Meat Puppets 

from the album Too High To Die 

STANDARD TUNING 

~ = let ring 

Intro 
|---------------------| 
|---------------------| 
|---------------------| 
|--2~--2~--2~--2~-3~--| 
|--2~--2~--2~--2~-3~--| 
|--0~--0~--0~--0~-1~--| 

Verse 
|----------------------| 
|----------------------| 
|----------------------| 
|----------------------| repeat 
|-------0h2------0h2---| 
|--3-33-----3-33----1--| 

Chorus 
|----------------------------| 
|----------------------------| 
|-------9/10/9-------9/10/9--| 
|----------------------------| repeat 
|-------7/-8/7-------7/-8/7--| 
|--0000--------0-000---------| 


share this page

See Also: