E-Chords
Meat Puppets

Things(Tabs)

Meat Puppets

roll up this ad to continue

Key: D
Meat Puppets 
Things 

from 'Too High To Die' 

STANDARD TUNING 

( ) = harmonic 
 v  = vibrate 

Intro 
|--2---3---2------------2---3---2---------| 
|--0---0---3---(7)------0---0---3---------| 
|--0---0---2---(7)------0---0---2---------| 
|--2---0---0---(7)------2---0---0---------| 
|--2---2----------------2---2-------------| 
|--0---3------------3v--0---3-------------| 

|--2---3---2------------2---3---2---(12)--| 
|--0---0---3---(7)------0---0---3---(12)--| 
|--0---0---2---(7)------0---0---2---(12)--| 
|--2---0---0---(7)------2---0---0---(12)--| 
|--2---2----------------2---2-------------| 
|--0---3------------3v--0---3-------------| 

Verse 
|--22-2-2--2-2--22-2-2--2-2--| 
|--00-0-0--0-0--33-3-3--3-3--| 
|--00-0-0--0-0--22-2-2--2-2--| 
|--22-2-2--2-2--00-0-0--0-0--| x2 
|--22-2-2--2-2---------------| 
|--00-0-0--0-0---------------| 

Pre-Chorus 
|--3---5---2---|--3---2--| 
|--1---3---0---|--1---3--| 
|--0---2---0---|--0---2--| 
|--2---0---2---|--2---0--| 
|--3-------2---|--3------| 
|----------0---|---------| 

Chorus 
|--3--2--|--2---3---2------------2---3---2-----------| 
|--3--3--|--0---0---3---(7)------0---0---3---(7)-----| 
|--0--2--|--0---0---2---(7)------0---0---2---(7)-----| 
|--0--0--|--2---0---0---(7)------2---0---0---(7)-----| 
|--------|--2---2----------------2---2---------------| 
|--------|--0---3------------3v--0---3-----------3v--| 

|--2---3---2------------2---3---2---(12)--| 
|--0---0---3---(7)------0---0---3---(12)--| 
|--0---0---2---(7)------0---0---2---(12)--| 
|--2---0---0---(7)------2---0---0---(12)--| 
|--2---2----------------2---2-------------| 
|--0---3------------3v--0---3-------------| 

Verse 
Pre-Chorus 
Chorus 

Bridge 
|-22-222--(12)-22-222------22-222--(12)-22-222---------| 
|-00-000--(12)-33-333--(7)-00-000--(12)-33-333---------| 
|-00-000--(12)-22-222--(7)-00-000--(12)-22-222---------| 
|-22-222-------00-000--(7)-22-222-------00-000-------0-| 
|-22-222-------------------22-222---------------0-2-3--| 
|-00-000-------------------00-000----------------------| 

|--2--0-0-2--2-2-2--| 
|--0--3-3-0--0-0-0--| 
|--0--2-2-0--0-0-0--| 
|--2--0-0-2--2-2-2--| x4 
|--2------2--2-2-2--| 
|--0------0--0-0-0--| 
on 4th time, end on the D 

Verse 
Pre-Chorus 
Chorus 

Ending 
|-------------| 
|-------------| 
|-------------| 
|--22--2-2-2--| 
|--22--2-2-2--| 
|--00--0-0-0--| 

share this page

See Also: