E-Chords
Meat Puppets

Take Off Your Clothes(Tabs)

Meat Puppets

roll up this ad to continue

(intro) 
E|----------------------------| 
B|----------------------------| 
G|----------------------------| 
D|----------------------------| 
A|5---------5-----------------| 
D|--00-3-00---00-3-00-7530----| 

(verso 1) 
E|------------------------------------| 
B|------------------------------------| 
G|--7-8p7-5p3-5p3h5----7-8p7-5p3h5----| 
D|0-7----------------0-7--------------| 
A|0-5----------------0-5--------------| 
D|0------------------0----------------| 

(Refrão) 
E|---------------| 
B|---------------| 
G|---------------| 
D|0-3-0-0-3-5----| 
A|0-3-0-0-3-5----| 
D|0-3-0-0-3-5----| 

(solo) 
E|----12b-12-12-12-12-12~-11-11-11-11\----| 
B|----------------------------------------| 
G|----------------------------------------| 
D|0---------------------------------------| 
A|0---------------------------------------| 
D|0---------------------------------------| 

V (verso 2) 
E|----------------------10-8-6-5----| 
B|----------------------------------| 
G|--7-8p7-7p5-5p3h5---7-------------| 
D|0-7---------------0-7-------------| 
A|0-5---------------0-5-------------| 
D|0-----------------0---------------| 

(verso 3) 
E|------------------------------------| 
B|------------------------------------| 
G|------------------------------------| 
D|0-444444-0-4444444444---------------| 
A|0-444444-0-4444444444---------------| 
D|0-444444-0-4444444444---------------| 

(outro) 
E|-----| 
B|-----| 
G|-----| 
D|--0~-| 
A|--0~-| 
D|--0~-| 
share this page

See Also: