E-Chords
Meat Puppets

Station(Tabs)

Meat Puppets

roll up this ad to continue

STANDARD TUNING 

h = hammer on 
p = pull off 
~ = let ring 

Intro - with wah 
|---------------------17-17p14-------17p14------------| 
|-14h15-17-12h14h15-15--------17p14-------17p14-------| 
|----------------------------------14~---------14-14~-| 
|-----------------------------------------------------| 
|-----------------------------------------------------| 
|-----------------------------------------------------| 

Verse 
|------------------------------------------------| 
|------------------------------------------------| 
|----------------------7-7--7-7-7-7------9-9--9--| 
|--7-7--7-7--9-9--9-9--7-7--7-7-7-7-7-7--9-9--9--| 
|--7-7--7-7--9-9--9-9--5-5--5-5-5-5-7-7--7-7--7--| 
|--5-5--5-5--7-7--7-7---------------5-5----------| 

Chorus 
|----------2~------------4~----| 
|--7~--9~--2~----7~--9~--5~----| 
|--7~--9~--2~----7~--9~--6~----| 
|--7~--9~--4~----7~--9~--6~----| 
|--5~--7~--4~----5~--7~--4~----| 
|----------2~------------------| 
share this page

See Also: