E-Chords
Meat Puppets

Split Myself In Two(Tabs)

Meat Puppets

roll up this ad to continue

(intro) 

|-------0~~---0~~---0~~---0~~~-| 
|-------0~~---0~~---0~~---0~~~-| 
|-------9~~---7~~---9~~---12~~-| 
|-------9~~---7~~---9~~---12~~-| 
|-------7~~---5~~---7~~---10~~-| 
|-3^-0--0~~---0~~---0~~---0~~~-| 

(verso) 
|------------|---------|------------| 
|------------|---------|------------| 
|------------|-5-5--/9-|------------| 
|-5--x-x-5-5-|-5-5--/9-|-5--x-x-5-5-| 
|-5--x-x-5-5-|-3-3--/7-|-5--x-x-5-5-| 
|-3--x-x-3-3-|---------|-3--x-x-3-3-| 
  Play x 8   | Play x 4| Play x 4 

(Refrão) 
|---------------------------------| 
|---------------------------------| 
|-7---5----5--7---9-7----9---12~~-| 
|-7---5----5--7---9-7----9---12~~-| 
|-5---3----3--5---7-5----7---10~~-| 
|-------0--------------0----------| 

|------------|---------|------------| 
|------------|---------|------------| 
|------------|-5-5--/9-|------------| 
|-5--x-x-5-5-|-5-5--/9-|-5--x-x-5-5-| 
|-5--x-x-5-5-|-3-3--/7-|-5--x-x-5-5-| 
|-3--x-x-3-3-|---------|-3--x-x-3-3-| 
       x 8   |      x 4|     x 4 

|---------------------------------| 
|---------------------------------| 
|-7---5----5--7---9-7----9---12~~-| 
|-7---5----5--7---9-7----9---12~~-| 
|-5---3----3--5---7-5----7---10~~-| 
|-------0--------------0----------| 

|------------|---------|------------| 
|------------|---------|------------| 
|------------|-5-5--/9-|------------| 
|-5--x-x-5-5-|-5-5--/9-|-5--x-x-5-5-| 
|-5--x-x-5-5-|-3-3--/7-|-5--x-x-5-5-| 
|-3--x-x-3-3-|---------|-3--x-x-3-3-| 
  Play x 8   | Play x 4| Play x 4 

|---------------------------------| 
|---------------------------------| 
|-7---5----5--7---9-7----9---12~~-| 
|-7---5----5--7---9-7----9---12~~-| 
|-5---3----3--5---7-5----7---10~~-| 
|-------0--------------0----------| 

|------------|---------|------------| 
|------------|---------|------------| 
|------------|-5-5--/9-|------------| 
|-5--x-x-5-5-|-5-5--/9-|-5--x-x-5-5-| 
|-5--x-x-5-5-|-3-3--/7-|-5--x-x-5-5-| 
|-3--x-x-3-3-|---------|-3--x-x-3-3-| 
  Play x 8   | Play x 4| Play x 4 

|---------------------------------| 
|---------------------------------| 
|-7---5----5--7---9-7----9---12~~-| 
|-7---5----5--7---9-7----9---12~~-| 
|-5---3----3--5---7-5----7---10~~-| 
|-------0--------------0----------| 

(outro) 
|------------|-----| 
|------------|-----| 
|------------|-----| 
|-5--x-x-5-5-|-5~~-| 
|-5--x-x-5-5-|-5~~-| 
|-3--x-x-3-3-|-3~~-| 
       x 8   | 
share this page

See Also: