E-Chords
Meat Puppets

Scum(Tabs)

Meat Puppets

roll up this ad to continue

E|--------------------|| 
B|--------------------|| 
G|--------------------|| 
D|--------------------|| 
A|------------3-------|| 
E|---0--3--4-----3--0-|| 

E|-----------------------|| 
B|-----------------------|| 
G|-----------------------|| 
D|-----------------------|| 
A|------------3----------|| 
E|---0--3--4-----3--2--0-|| 

E|----------------------------|| 
B|----------------------------|| 
G|----------------------------|| 
D|----------------------------|| 
A|------------5--3--0---------|| 
E|---0--3--4----------3--0----|| 

E|---------------------|| 
B|--3------------------|| 
G|--2------------------|| 
D|--0----------0-------|| 
A|--0----------0-------|| 
E|--0---3--4---0-------|| 
share this page

See Also: