E-Chords
Meat Puppets

Automatic Mojo(Tabs)

Meat Puppets

roll up this ad to continue

Key: Bb
 tabbed by Thomas J Holmes
[email protected]
Date: Fri, 3 Dec 1999 20:18:06
 
INTRO:
   Bb G      Bb G      Bb G      Bb G C                           
E|------------------------------------------------|
B|--------------------------------------6--8------|
G|--3---------3---------3---------3---/7--/9------|
D|--3-5-5-5-5-3-5-5-5-5-3-5-5-5-5-3-5-------------|
A|----5-5-5-5---5-5-5-5---5-5-5-5---5-------------|
E|------------------------------------------------|

VERSE:
   Bb G      Bb G      Bb G      Bb G C                           
E|------------------------------------------------|
B|-----------------------------------~5~----------| repeat 4x
G|--3---------3---------3---------3--~5~----------|
D|--3-5-5-5-5-3-5-5-5-5-3-5-5-5-5-3-5-------------|
A|----5-5-5-5---5-5-5-5---5-5-5-5---5-------------|
E|------------------------------------------------|

CHORUS:
   Bb G Bb      C     Csus Dsus   D   
E|------------------------------------------------|
B|--3---3-3-3-3-5-5-5-6-6-6-8-8-8-7-7-7-----------| repeat 2x
G|--3---3-3-3-3-5-5-5-5-5-5-7-7-7-7-7-7-----------|
D|--3-5-3-3-3-3-5-5-5-5-5-5-7-7-7-7-7-7-----------|
A|----5-------------------------------------------|
E|------------------------------------------------|

There is another part over the first solo but its just a simple
little pentatonic riff that goes something like:

  G# F Bb   C G# F Bb   C G# F Bb   C G# F Bb  C  
E|------------------------------------------------|
B|------------------------------------------------| 
G|------------------------------------------------|
D|------------------------------------------------|
A|-----111113------111113------111113------111113-|
E|-4-1---------4-1---------4-1---------4-1--------|

  Bb G C    D Bb G C    D Bb G C    D Bb G C    D  
E|------------------------------------------------|
B|------------------------------------------------| 
G|------------------------------------------------|
D|------------------------------------------------|
A|-----333335------333335------333335------333335-|
E|-6-3---------6-3---------6-3---------6-3--------|

It goes back and forth between the above 2 before moving the same 
riff further and further up the fret board, then, back to the chorus!

For any comments or corrections e-mail me at [email protected]

Enjoy!

_______________________________________________________
Contribuição: Pedro Monteiro([email protected])
share this page

See Also: