E-Chords
Meat Puppets

Aurora Borealis(Tabs)

Meat Puppets

roll up this ad to continue

beginning
----------5---------10--
----------7-------------				from chord slide quickly to the two 
----------7-----10------				seperate notes
----------5-------------
----------5-------------
-------------------------

-------8--------------------
-----8-------10--8---10-------	hammer the chord onto the next 
---------10------10------10---	note(tenth fret)
----------------------------
------------------------------
------------------------------

----------0-----
----------0----
-------------									
----9-----------
----7-----------
----0-------------
end of intro

**********************************************************************

MAIN RIFF

---------------------------------
----------------------------------
----------5----5----7----7------	the chords at the beginning of 
----------5----5----7----7--------		rifff
----------3----3----5----5-------
----------3----3----5----5---------

-------11-------------------------------------
-------------13--11-hammer-13--10-hammer-12--10--10--10---			
----13----13----------------------------------
----------------------------------------------
----------------------------------------------
-----------------------------------------------
(11 to 13) is a hammer and (10 to 12) is also.  Then 
continue to hit the tenth fret on the second string three times as 
shown above


---10-pulloff-8------------------------------0------
----------------------10-pulloff-8--------0--------		the last open 
-----------------10-------------------10-------0----			note is played
----------------------------------------------------			very softly
-----------------------------------------------------
----------------------------------------------------

I hope I at least got you started on this song.  It took me a while to 
do  If you have any questions or would like another part of the song 

please e-mail me at [email protected]
I'd appreciate some input
Nick Rutkowski
share this page

See Also: