E-Chords
Mcfly

We're The Young(Tabs)

Mcfly

Intro: 

e|------------ 
b|------------ 
g|------------ 
d|-0-----0---- 
a|------------ 
e|--2-3---2-3- 


Verse 1: 

We got a situation 
They're always putting us down e|---------- 
                               b|---------- 
                               g|---------- 
                               d|-0-------- 
                               a|--3-5-7-5- 
                               e|---------- 

We are the generation                        
Cant keep us underground e|---------- 
                         b|---------- 
                         g|---------- 
                         d|-0-------- 
                         a|--3-5-7-5- 
                         e|---------- 

Is it my imagination? e|------- 
                      b|------- 
                      g|------- 
                      d|-7-6-5- 
                      a|------- 
                      e|------- 

Or do you feel good? e|----------------------- 
                     b|----------------------- 
                     g|----------------------- 
                     d|----------------------- 
                     a|-5-5-5-5--------------- 
                     e|---------5-5-5-5-5-5-5- 

We're on a one-way mission 
And we can take it or die e|---------- 
                          b|---------- 
                          g|---------- 
                          d|-0-------- 
                          a|--3-5-7-5- 
                          e|---------- 

We are the sunshine nation 
Go tell the satalites e|---------- 
                      b|---------- 
                      g|---------- 
                      d|-0-------- 
                      a|--3-5-7-5- 
                      e|---------- 

Is it my imagination? e|------- 
                      b|------- 
                      g|------- 
                      d|-7-6-5- 
                      a|------- 
                      e|------- 

Or do you feel good? e|----------------------- 
                     b|----------------------- 
                     g|----------------------- 
                     d|----------------------- 
                     a|-5-5-5-5--------------- 
                     e|---------5-5-5-5-5-5-5- 

e|-------------------------------------- 
b|-------------------------------------- 
g|-------------------------------------- 
d|-0------------------------------------ 
a|-------------------------------------- 
e|----------------------------------2-3- 
  What a day, what a day, what a day 
  What a day, what a day, what a day 

e|-------------------------------------- 
b|-------------------------------------- 
g|-------------------------------------- 
d|-0------------------------------------ 
a|-------------------------------------- 
e|----------------------------------2-3- 
  What a day, what a day, what a day 
  What a day, what a day, what a day 


Verse 2: 

We gotta stop this feeling  
Coz I dont wanna live twice e|---------- 
                            b|---------- 
                            g|---------- 
                            d|-0-------- 
                            a|--3-5-7-5- 
                            e|---------- 

We better start believing 
Before we run outta time  e|---------- 
                          b|---------- 
                          g|---------- 
                          d|-0-------- 
                          a|--3-5-7-5- 
                          e|---------- 

Is it my imagination? e|------- 
                      b|------- 
                      g|------- 
                      d|-7-6-5- 
                      a|------- 
                      e|------- 

Or do you feel good? e|----------------------- 
                     b|----------------------- 
                     g|----------------------- 
                     d|----------------------- 
                     a|-5-5-5-5--------------- 
                     e|---------5-5-5-5-5-5-5- 

e|-------------------------------------- 
b|-------------------------------------- 
g|-------------------------------------- 
d|-0------------------------------------ 
a|-------------------------------------- 
e|----------------------------------2-3- 
  What a day, what a day, what a day 
  What a day, what a day, what a day 

e|-------------------------------------- 
b|-------------------------------------- 
g|-------------------------------------- 
d|-0------------------------------------ 
a|-------------------------------------- 
e|----------------------------------2-3- 
  What a day, what a day, what a day 
  What a day, what a day, what a day 

roll up this ad to continue

share this page

See Also: