E-Chords
Mcfly

The Ballad Of Paul K Bass(Tabs)

Mcfly

Intro: 
|-------------------------------------14h16--------| 
|-14h16-16-16-14h16-16-14h16-14h16-16--------------| 
|-------------------------------------------14h16--| 
|--------------------------------------------------| 

|-------------------------------------14h16--------| 
|-14h16-16-16-14h16-16-14h16-14h16-16--------------| 
|-------------------------------------------14h16--| 
|--------------------------------------------------| 

|------------------------------------------------| 
|-13--14--14s16--14------------------------------| 
|------------------------14------------14--------| 
|------------------------------12-------------12-| 

Verse: (0:17) 
|--------------------------------------------------| 
|--------------------------------------------------| 
|---------------9-----------14---------------------| 
|-----------------------------------------12-------| 

|--------------------------------------------------| 
|--------------------------------------------------| 
|---------------9-----------14---------------------| 
|-9------------------------------------------------| 

Pre-Chorus: (0:33) 
|-----------------------------------------------------| 
|-----------------------------14-------------------11-| 
|----12-------12s14----------------------11-----------| 
|-12--------------------------------------------------| 

|-------------------------------------------------------| 
|--9-------------------------------9--------------------| 
|----------9-----------9-----9-9---------------9--------| 
|-------------------9-----------------------------9--7--| 

Chorus: (0:53) 
|-------------------------------------------------------| 
|-------------------------------------------------------| 
|-7-----------------------------------------------------| 
|--------7--5-----5--4--2-----/9--7-----2--/7-7--5--4---| 

|----------------------------------------| 
|-------------------------------7--------| 
|---------------------------7------------| 
|-4s===12--11--9--7--5-------------------| 
_________________________ 

|--------------------------------| 
|---------9---------------9------| 
|-7--------------7---------------| 
|--------------------------------| 
_________________________ 

Verse: (1:18) 
|----------------------------------------------------| 
|-------------------------------------------4--------| 
|-7--------4-------------------2-2------2-2---2------| 
|--------------------2---2-4-5--------2--------------| 

|----------------------------------------------------------------------| 
|------------------------------6----------------------------9h11p9-----| 
|-7------7-9-7-6-----------6-7----9-------------2-2------/9---------9\-| 
|------7---------9-----7-9-----------9\---2-4-5------------------------| 

|------------------------------------------------------------------------| 
|------------------------------------------------------------------------| 
|---------4-----7---------6-----9-7-7-7---------6---4-4-4---4-6-7-7s9\---| 
|-5-5-5-5---5-5---7-7-7-7---9-7---------7\--4-4---4-------4--------------| 

|--------------------------------------------------------------------------| 
|------------------------4---------------------------------------9---------| 
|--------------4-----4-4---4-----9-----------------------------9---9-------| 
|-2---2-2----2-----2-----------7----0-7-7--7-7h9-7-7--9-9-11---------------| 


Chorus: (1:57) 
|----------------------------------------------------------------------| 
|----------------------7-----------------4-2---------------------------| 
|-7-7----7-7---------7-----------------4-----4---2-2-2-2-2-2-----------| 
|------7-----7-7-5-5-----5-5-4-4-2-2-2---------2-------------5-5-4-4-4-| 

|-------------------------------------------------| 
|-----6-------------------------------------------| 
|---6---6-----7--6-----------------9--9---11-12---| 
|-4-------4---------9--7--5-----/9----------------| 

Bridge: (2:17) 
|-----------------------------------------------------------------------| 
|------------11-13-13s16------20--18--16--------------------------------| 
|-11s13---13------------------------------16\-9h11---9-9-9-9-9-9-9\-----| 
|-----------------------------------------------------------------------| 

|--------------------------------------------------------------------------| 
|----------------------------------------------------9---------------------| 
|-6-6-6-6-6-8-9-6---------9h11p9-8-------9-------------9-------------------| 
|-----------------9-9-9-9----------9--7-----7-------------7----19\---------| 

Chorus: (2:37) 
|------------------------------------------------------------------------| 
|------------------------------------------4-2---------------------------| 
|-----7----7-7---------7-----------------4-----4---2-2-2-2-2-2-----------| 
|-7-7---7------7-7-5-5---5-5-5-4-4-2-2-2---------2-------------5-5-4-4-4-| 

|-------------------------------------------------| 
|-------------------------------------------------| 
|-------------7--6-----------------9--9---11-12---| 
|-4s16-16-16--------9--7--5-----/9----------------| 

Outro: 
|-------------------------------------14h16--------| 
|-14h16-16-16-14h16-16-14h16-14h16-16--------------| 
|-------------------------------------------14h16--| 
|--------------------------------------------------| 

|-------------------------------------14h16--------| 
|-14h16-16-16-14h16-16-14h16-14h16-16--------------| 
|-------------------------------------------14h16--| 
|--------------------------------------------------| 

|----------------------------------------------| 
|-13--14--14s16--16----------------------------| 
|------------------------14----12--------------| 
|-----------------------------------------12---| 

Legend: 
h - hammeron 
p - pulloff 
s - slide 

roll up this ad to continue

share this page

See Also: