E-Chords
Mcfly

Shine A Light(Tabs)

Mcfly

Tom(Rhythm guitar) 

Intro/Outro: 
e-------7-7-6-6-6-6-6-6-------------| 
B---7-7-7-7-7-7-7-7-7-7-------------| 
G---4-4-----------------------------|  3x 
D-----------------------------------| 
A-----------------------------------| 
E-----------------------------------| 

e-------7-7-4-4-4-4-4-4-------------| 
B---7-7-7-7-7-7-7-7-7-7-------------| 
G---4-4-----------------------------| 
D-----------------------------------| 
A-----------------------------------| 
E-----------------------------------| 

Verse/Chorus: 
e---7----4----2----0----------------| 
B---7----4----2----0----------------| 
G---8----x----3----1----------------| 
D---9----6----4----2----------------| 
A---9----6----4----2----------------| 
E---x----x----x----0----------------| 

Pre-Chorus 
e---2----0--------------------------| 
B---2----0--------------------------| 
G---3----1--------------------------| 
D---4----2--------------------------| 
A---4----2--------------------------| 
E---x----0--------------------------| 

---------------------------------------------------------------------------- 
Danny (Lead Guitar) 

Intro 
e---x---x---x---0-------------------| 
B---x---x---x---0-------------------| 
G---4---4---4---1-------------------| 
D---4---4---4---2-------------------| 
A---2---x---x---2-------------------| 
E---x---4---2---0-------------------| 

Verse/Chorus: 
e---2---2---7-----------------------| 
B---2---2---7-----------------------| 
G---4---3---9-----------------------| 
D---4---4---9-----------------------| 
A---x---x---x-----------------------| 
E---x---x---x-----------------------| 

Pre-Chorus 
e---2---7---------------------------| 
B---2---7---------------------------| 
G---3---9---------------------------| 
D---4---9---------------------------| 
A---x---x---------------------------| 
E---x---x---------------------------| 

roll up this ad to continue

share this page

See Also: