E-Chords
Mcfly

She Left Me Solo(Tabs)

Mcfly

e|---------------------------------------------------------------| 
B|----8-10^(12)--10^(12)--10p8----8--10(11)^(10)--8----8--10-----| 
G|--9--------------------------h9-------------------h8-----------| 
D|---------------------------------------------------------------| 
A|---------------------------------------------------------------| 
E|---------------------------------------------------------------| 

e|----------15--14--12--14p12------------------------------------| 
B|----8--8---------------------15--15--12--15--------------------| 
G|--9------------------------------------------12------12--------| 
D|-------------------------------------------------14------------| 
A|---------------------------------------------------------------| 
E|---------------------------------------------------------------| 

e|---------------------------------------------------------------| 
B|---------------------------------------------------------------| 
G|----14(16)(14)---------12h14--^(16)(14)--12------12------------| 
D|----------------12h14------------------------14----------------| 
A|---------------------------------------------------------------| 
E|---------------------------------------------------------------| 

e|-----------------------------12--------------------------------| 
B|---------------------12--12------15p12--12---------------------| 
G|--12h14------12--14-------------------------14p12------12h14---| 
D|---------14----------------------------------------14----------| 
A|---------------------------------------------------------------| 
E|---------------------------------------------------------------| 

e|---------------------------------------------------------------| 
B|--12-----------------------------------------------------------| 
G|------12---------7--9-7-7--9-7-7--9-7-7--9-7-7--9-7-7--9-7-7---| 
D|----------14--9------------------------------------------------| 
A|---------------------------------------------------------------| 
E|---------------------------------------------------------------| 

e|---------------------------------------------------------------| 
B|----------------12--15--15--15--12--15--15^(17)(15)******------| 
G|--9-7-7--9-7-7-------------------------------------------------| 
D|---------------------------------------------------------------| 
A|---------------------------------------------------------------| 
E|---------------------------------------------------------------| 


This is my first tab, and I don't know if it's totally correct. Buuuut, it sound fine. 

roll up this ad to continue

share this page

See Also: