E-Chords
Mcfly

Saturday Night Intro(Tabs)

Mcfly

Key: C#5
Okay ive only worked part of the song out and its pretty easy... 

* = palm mute 

Intro: 

e|---------------------------------------------| 
B|---------------------------------------------| 
G|-9--9----6--6-6-6-6-6-6-6-6------------------| 
D|-9--9----6--6-6-6-6-6-6-6-6------------------| 
A|-7--7----4--4-4-4-4-4-4-4-4------------------| 
E|---------------------------------------------|(X2) 
              * * * * * * * *   

e|---------------------------------------------------| 
B|---------------------------------------------------| 
G|-9--9----6----9--9----6----9--9----6----9--11------| 
D|-9--9----6----9--9----6----9--9----6----9--11------| 
A|-7--7----4----7--7----4----7--7----4----7--9-------| 
E|---------------------------------------------------| 

Interlude: C#5 

C#5 
When my parents are outta town i got all my buddies round 
           F#5 
said where gonna have a party tonight 
C#5                                                              G#5  
If your dad has got the truck then ill come and pick you up and anyone who 

wants to come for a ride 


Etc still working on the rest... 

roll up this ad to continue

share this page

See Also: