E-Chords
Mcfly

Nothing Live(Tabs)

Mcfly

Key: D
McFly 
Nothing (Wonderland DVD: Live In Manchester) 
Tuning: Standard 
Transcribed by Soch H. 
Email: [email protected] 

The studio and the live version aren't that different apart. Just the live version 
has more distortion with a little few notes added to it. I would like to credit 
TeddyNapperFi for the chord outline though. 

Intro: 
|-2----5--3--5--3--2-2---0-----| 
|-3----5--3--5--3--3-3---0-----| 
|-2----6--4--6--4--2-2---0-----| 
|-0----7--5--7--5--0-0---0-----| 
|------------------------------| 
|------------------------------| (x3) 

|-2-----9---7---5---3---2-2--0--| 
|-3----10---8---5---3---3-3--0--| 
|-2-----9---7---6---4---2-2--0--| 
|-0-------------7---5---0-0--0--| 
|-------------------------------| 
|-------------------------------| 

D                               G     D 
Everything she says to me means nothing 
(Repeat this riff after each line of the verses) 
|---9---7---5---3---2-2--0--| 
|--10---8---5---3---3-3--0--| 
|---9---7---6---4---2-2--0--| 
|-----------7---5---0-0--0--| 
|---------------------------| 
|---------------------------| 
D                            A    D 
Even words of sympathy mean nothing 
D                                         G    D 
I'm feeling down and I hate the sound of nothing 
D                                      A     D 
What's the point in hanging round for nothing 

       Bm                                  D 
And I can't remember falling in love with you 

Play on (And I can't remember falling in love with you) (0:38) 
|-----------------------------------------------------| 
|-----------------------------------------------------| 
|-7-6--4--4-4--4--4--4-4--6-7---9--9----11-11---11-11-| 
|-x-x--4--4-4--4--4--4-4--x-x---x--x-----x--x----x--x-| 
|-5-4--2--2-2--2--2--2-2--4-5---7--7-----9--9----9--9-| 
|-----------------------------------------------------| 
          G 
This is agony 
E                                 A 
And you know you're putting me through 
|----------------| 
|-----3------5---| 
|--/4-----/6-----| 
|----------------| 
|----------------| 
|----------------| 
Chorus: 
    G  A  Bm             G  A  F# 

This misery taking every memory 
                     G  A  D           G 
Just tell me why this misery won't go away 
             Gm           D 
How can we carry on this way 

D                              G   D 
I find it hard to hold a conversation 
D                                A     D 
And being with her's just an aggravation 
D                                   G     D 
I could stay but I haven't got the patience 
D                            A     D 
I'm sick of her pathetic explanations 

            Bm                                   D 
That's why I've forgotten falling in love with you 

Play on (That's why I've forgotten falling in love with you) (1:32) 
|-----------------------------------------------------| 
|-----------------------------------------------------| 
|-7-6--4--4-4--4--4--4-4--6-7---9--9----11-11---11-11-| 
|-x-x--4--4-4--4--4--4-4--x-x---x--x-----x--x----x--x-| 
|-5-4--2--2-2--2--2--2-2--4-5---7--7-----9--9----9--9-| 
|-----------------------------------------------------| 
          G 
This is agony 
E                                  A 
And you know you're putting me through 
|----------------| 
|-----3------5---| 
|--/4-----/6-----| 
|----------------| 
|----------------| 
|----------------| 

-Chorus- 

Break: (1:57) 
|-2-2-2---3--3-3-3-3---x-x-x-x---2-2-2---0--0-0-0-0---x-x-x-x------| 
|-3-2-3---3--3-3-3-3---x-x-x-x---3-2-3---2--2-2-2-2---x-x-x-x------| 
|-2-2-2---0--0-0-0-0---x-x-x-x---2-2-2---2--2-2-2-2---x-x-x-x------| 
|-0-0-0---0--0-0-0-0---x-x-x-x---0-0-0---2--2-2-2-2---x-x-x-x------| 
|---------2--2-2-2-2---x-x-x-x-----------0--0-0-0-0---x-x-x-x------| 
|---------3--3-3-3-3---x-x-x-x------------------------x-x-x-x------| 

|-2-2-2---3--3-3-3-3---x-x-x-x---2-2-2---0--0-0-0-0-0-0-0-0-0-----| 
|-3-2-3---3--3-3-3-3---x-x-x-x---3-2-3---2--2-2-2-2-2-2-2-2-2-----| 
|-2-2-2---0--0-0-0-0---x-x-x-x---2-2-2---2--2-2-2-2-2-2-2-2-2-----| 
|-0-0-0---0--0-0-0-0---x-x-x-x---0-0-0---2--2-2-2-2-2-2-2-2-2-----| 
|---------2--2-2-2-2---x-x-x-x-----------0--0-0-0-0-0-0-0-0-0-----| 
|---------3--3-3-3-3---x-x-x-x------------------------------------| 

______ 
(2:09) 
|---------| 
|---------| 
|-9b==11--| 
|---------| 
|---------| 
|---------| 

D                      Gm 
You'll never bring me down 
                    D 
'Cause I'm so far above you 
                   Gm 
You think you're strong 
(2:19) 







|--------------------| 
|--------------------| 
|--------------------| 
|-7s9-7--------------| 
|-------9s7--5h7-5~--| 
|--------------------| 
D                         Gm 
But you're nothing to me now 
(2:23) 
|---------------| 
|---------------| 
|---------------| 
|-4s5s==12~-----| 
|---------------| 
|---------------| 
                         D 
And I hope you will be happy 
             Gm    D 
This time around 
(2:31) 
|----10-12b14r-10~~-| 
|-12----------------| 
|-------------------| 
|-------------------| 
|-------------------| 
|-------------------| 

        Bm                                 D 
And I can't remember falling in love with you 

Play on (And I can't remember falling in love with you) (2:42) 
|-----------------------------------------------------| 
|-----------------------------------------------------| 
|-7-6--4--4-4--4--4--4-4--6-7---9--9----11-11---11-11-| 
|-x-x--4--4-4--4--4--4-4--x-x---x--x-----x--x----x--x-| 
|-5-4--2--2-2--2--2--2-2--4-5---7--7-----9--9----9--9-| 
|-----------------------------------------------------| 
          G 
This is agony 
E                                A 
Do you know you're putting me through 
|----------------| 
|-----3------5---| 
|--/4-----/6-----| 
|----------------| 
|----------------| 
|----------------| 

-Chorus- 

Break: (3:07) 
|-2-2-2---3--3-3-3-3---x-x-x-x---2-2-2---0--0-0-0-0---x-x-x-x------| 
|-3-2-3---3--3-3-3-3---x-x-x-x---3-2-3---2--2-2-2-2---x-x-x-x------| 
|-2-2-2---0--0-0-0-0---x-x-x-x---2-2-2---2--2-2-2-2---x-x-x-x------| 
|-0-0-0---0--0-0-0-0---x-x-x-x---0-0-0---2--2-2-2-2---x-x-x-x------| 
|---------2--2-2-2-2---x-x-x-x-----------0--0-0-0-0---x-x-x-x------| 
|---------3--3-3-3-3---x-x-x-x------------------------x-x-x-x------| 

|-2-2-2---3--3-3-3-3---x-x-x-x---2-2-2---0--0-0-0-0-0-0-0-0-0-----| 
|-3-2-3---3--3-3-3-3---x-x-x-x---3-2-3---2--2-2-2-2-2-2-2-2-2-----| 
|-2-2-2---0--0-0-0-0---x-x-x-x---2-2-2---2--2-2-2-2-2-2-2-2-2-----| 
|-0-0-0---0--0-0-0-0---x-x-x-x---0-0-0---2--2-2-2-2-2-2-2-2-2-----| 
|---------2--2-2-2-2---x-x-x-x-----------0--0-0-0-0-0-0-0-0-0-----| 
|---------3--3-3-3-3---x-x-x-x------------------------------------| 

Ending Solo: (3:20) 
|----------------------------------------------------------------10-10~--| 
|------------------------------------------------10-10~----10h12---------| 
|---------------------7-7~--9-9b11r--7-7~---9s11--------11---------------| 
|---------7-9-7~--7h9----------------------------------------------------| 
|-5~--7s9----------------------------------------------------------------| 
|------------------------------------------------------------------------| 




|-0-------10------10------10------10--12b14=--------------------| 
|-0--10h12---10h12---10h12---10h12------------------------------| 
|-0-------------------------------------------------------10\---| 
|---------------------------------------------------------------| 
|---------------------------------------------------------------| 
|---------------------------------------------------------------| 

roll up this ad to continue

share this page

See Also: