E-Chords
Mcfly

No Worries Intro(Tabs)

Mcfly

Hey, i've have tried to work this intro out perfect and this is what i've got! This 
is my 3rd tab and please comment on it! e-mail at [email protected] for any 
corrections! 

Tabbed By Reece Chown 

bu = bend up 
bd = bend down 
s  = slide 
h  = hammer on 

e|--11s13-11-10-----------------10h11--13-11-10----------------10h11-10--| 
B|--------------11s13-----11h13-----------------11s13----11h13-----------| 
G|-----------------------------------------------------------------------| 
D|-----------------------------------------------------------------------| 
A|-----------------------------------------------------------------------| 
E|-----------------------------------------------------------------------| 

e|------------------------------------------13---------------------------| 
B|--11------11s13--11--10------10--11---13bu---13bd--11------------------| 
G|------10-----------------12--------------------------------------------| 
D|-----------------------------------------------------------------------| 
A|-----------------------------------------------------------------------| 
E|-----------------------------------------------------------------------| 

e|--11s13-11-10-----------------10h11--13-11-10----------------10h11-10--| 
B|--------------11s13-----11h13-----------------11s13----11h13-----------| 
G|-----------------------------------------------------------------------| 
D|-----------------------------------------------------------------------| 
A|-----------------------------------------------------------------------| 
E|-----------------------------------------------------------------------| 

e|------------------------------------------13------13-------------------| 
B|--11------11s13--11--10------10--11---13bu---13bu----13bd--11----------| 
G|------10-----------------12--------------------------------------------| 
D|-----------------------------------------------------------------------| 
A|-----------------------------------------------------------------------| 
E|-----------------------------------------------------------------------| 

roll up this ad to continue

share this page

See Also: