E-Chords
Mcfly

Met This Girl(Tabs)

Mcfly

Title: Met This Girl 
Artist: McFly 
Tuning: Eadgbe;  
Tabbed By: Lewis Micthell  

Intro (bass) 
g|----------------------------| 
d|-7--11--12--5--7------------| 
a|----------------------------| x2 
E|----------------------------| 

 Verse 
|----------------------------| 
|----------------------------| 
|-----4--5-------------------| 
|--5--------3-5--------------|  x2 
|----------------------------| 
|----------------------------| 

|----------------------------| 
|-----5--6-------------------| 
|--5--------3-5--------------| 
|----------------------------|  x 1 
|----------------------------| 
|----------------------------| 

|----------------------------| 
|----------------------------| 
|-----4--5-------------------| 
|--5--------3-5--------------|  x1 
|----------------------------| 
|----------------------------| 

Pre-Chorus 
|----------------------------| 
|----------------------------| 
|--5----------7--------------| 
|--5--x9------7--x5----------| 
|--3----------5--------------| 
|----------------------------| 

Chorus 
|----------------------------| 
|----------------------------| 
|-----4--5-------------------| 
|--5--------3-5--------------|  x2 
|----------------------------| 
|----------------------------| 

|----------------------------| 
|-----5--6-------------------| 
|--5--------3-5--------------| 
|----------------------------|  x 1 
|----------------------------| 
|----------------------------| 

|----------------------------| 
|----------------------------| 
|-----4--5-------------------| 
|--5--------3-5--------------|  x1 
|----------------------------| 
|----------------------------| 

roll up this ad to continue

share this page

See Also: