E-Chords
Mcfly

Lies(Tabs)

Mcfly

No Capo 

Guitar 1 
Intro 
e|----------------------------------| 
B|----------------------------------| 
G|---7-------------------7-\-3------| 
D|---7---8---9---8---7---7-\-3------| 
A|---5---8---9---8---7---5-\-1------| 
E|-------6---7---6---5--------------| 

Verse --> Optional (at 0:19 and 0:29) 
e|--------------------------------| 
B|--------------------------------| 
G|--------------------------------| 
D|---------------3----5h7---------| 
A|---5-----7----------------------| 
E|--------------------------------| 

Pre-Chorus 
e|-------------------------------------------------| 
B|-------------------------------------------------| 
G|-------------------------------------------------| 
D|---8---7--------------3-----5h7------8---7-------| 
A|---8---7---5-----7-------------------8---7-------| 
E|---6---5-----------------------------6---5-------| 

Chorus 
e|----------------------------| 
B|----------------------------| 
G|---7-------------------7----| 
D|---7---8---9---8---7---7----| x2 
A|---5---8---9---8---7---5----| 
E|-------6---7---6---5--------| 

Repeat intro 
e|----------------------------------| 
B|----------------------------------| 
G|---7-------------------7-\-3------| 
D|---7---8---9---8---7---7-\-3------| 
A|---5---8---9---8---7---5-\-1------| 
E|-------6---7---6---5--------------| 

Verse --> Optional (at 1:22 and 1:33) 
e|--------------------------------| 
B|--------------------------------| 
G|--------------------------------| 
D|---------------3----5h7---------| 
A|---5-----7----------------------| 
E|--------------------------------| 

Pre-Chorus 
e|--------------------| 
B|--------------------| 
G|--------------------| 
D|---8---7------------| 
A|---8---7------------| 
E|---6---5------------| 

Repeat Chorus 
e|----------------------------| 
B|----------------------------| 
G|---7-------------------7----| 
D|---7---8---9---8---7---7----| x2 
A|---5---8---9---8---7---5----| 
E|-------6---7---6---5--------| 

Bridge 
e|----------------------------| 
B|----------------------------| 
G|-------7-----------7--------| 
D|---5---7---7---5---7---7----|  
A|---5---5---7---5---5---7----| 
E|---3-------5---3-------5----| 
 ------last notes rises higher. 

Intrumental: 
e|-------------------------| 
B|-------------------------| 
G|---7---------------------| 
D|---7---8---9---8---7-----|  
A|---5---8---9---8---7-----| 
E|-------6---7---6---5-----| 

Repeat Intro 
e|----------------------------| 
B|----------------------------| 
G|---7------------------------| 
D|---7---8---9---8---7--------| 
A|---5---8---9---8---7--------| 
E|-------6---7---6---5--------| 

e|-------------------------------------------| 
B|-------------------------------------------| 
G|-----------10---9---7----------------------| 
D|---5---7---10---9---7---8---7--------------| 
A|---5---7---8----7---5---8---7--<--Strum 3x-| 
E|---3---5----------------6---5--------------| 

Chorus 
e|----------------------------| 
B|----------------------------| 
G|---7-------------------7----| 
D|---7---8---9---8---7---7----| x2 
A|---5---8---9---8---7---5----| 
E|-------6---7---6---5--------| 

Outro 
e|-------------------------| 
B|-------------------------| 
G|---7---------------------| 
D|---7---8---9---8---7-----| x2 
A|---5---8---9---8---7-----| 
E|-------6---7---6---5-----| 
(after Bass) 
e|-----------------| 
B|-----------------| 
G|---7---5---7-----| 
D|---7---5---7-----|  
A|---5---3---5-----| 
E|-----------------| 

Guitar 2 
Intro -- could play same as guitar 2 or this... 
e|-------------------------| 
B|---------10--------------| 
G|---10-12----12-10----10--| 
D|12----------------12-----|x4 
A|-------------------------| 
E|-------------------------| 

Verse(at 0:19 and 0:29) 



e|--------------------------------| 
B|--------------------------------| 
G|--------------------------------| 
D|---------------3----5h7---------| 
A|---5-----7----------------------| 
E|--------------------------------| 

Pre-Chorus 
e|-------------------------------------------------| 
B|-------------------------------------------------| 
G|-------------------------------------------------| 
D|---8---7--------------3-----5h7------8---7-------| 
A|---8---7---5-----7-------------------8---7-------| 
E|---6---5-----------------------------6---5-------| 

Chorus 
e|----------------------------| 
B|----------------------------| 
G|---7-------------------7----| 
D|---7---8---9---8---7---7----| x2 
A|---5---8---9---8---7---5----| 
E|-------6---7---6---5--------| 

Repeat intro 
e|-------------------------| 
B|---------10--------------| 
G|---10-12----12-10----10--| 
D|12----------------12-----|x4 
A|-------------------------| 
E|-------------------------| 

Verse(at 1:22 and 1:33) 
e|--------------------------------| 
B|--------------------------------| 
G|--------------------------------| 
D|---------------3----5h7---------| 
A|---5-----7----------------------| 
E|--------------------------------| 

Pre-Chorus 
e|--------------------| 
B|--------------------| 
G|--------------------| 
D|---8---7------------| 
A|---8---7------------| 
E|---6---5------------| 

Repeat Chorus 
e|----------------------------| 
B|----------------------------| 
G|---7-------------------7----| 
D|---7---8---9---8---7---7----| x2 
A|---5---8---9---8---7---5----| 
E|-------6---7---6---5--------| 

Bridge (2:08) 

e|-----------------------------------| 
B|-----------------------------------| 
G|-----------------------------7-----| 
D|---------------3----5h7--5---7---7-| 
A|---5-----7---------------5---5---7-| 
E|-------------------------3-------5-| 
 ------ last notes rises higher. 

Intrumental: 
e|-------------------------| 
B|-------------------------| 
G|---7---------------------| 
D|---7---8---9---8---7-----|  
A|---5---8---9---8---7-----| 
E|-------6---7---6---5-----| 

Repeat Intro 


e|-------------------------| 
B|---------10--------------| 
G|---10-12----12-10----10--| 
D|12----------------12-----|x4 
A|-------------------------| 
E|-------------------------| 

e|-------------------------------------------| 
B|-------------------------------------------| 
G|-----------10---9---7----------------------| 
D|---5---7---10---9---7---8---5--------------| 
A|---5---7---8----7---5---8---5--<--Strum 3x-| 
E|---3---5----------------6---7--------------| 

Chorus 
e|----------------------------| 
B|----------------------------| 
G|---7-------------------7----| 
D|---7---8---9---8---7---7----| x2 
A|---5---8---9---8---7---5----| 
E|-------6---7---6---5--------| 

Outro 
e|-------------------------| 
B|---------10--------------| 
G|---10-12----12-10----10--| 
D|12----------------12-----|x4 
A|-------------------------| 
E|-------------------------| 
(after Bass) 
e|-----------------| 
B|-----------------| 
G|---7---5---7-----| 
D|---7---5---7-----|  
A|---5---3---5-----| 
E|-----------------| 

| /  slide up 
| \  slide down 
| h  hammer-on 
| p  pull-off 
| ~  vibrato 
| +  harmonic 
| x  Mute note 


This might not be 100% sure, but it sounds right to me. comment and rate! 

roll up this ad to continue

share this page

See Also: