E-Chords
Mcfly

Its All About You Solo(Tabs)

Mcfly

Tabbed by Jay R G Cool                  Hi I put a lot of work into this 
                                         so here is the solo to its all 
Email: [email protected]             about you. 
Tuning: Standard 
 


e--------------------0----0-----0-----1-----3-----4--------------------------| 
B----0-----1----3-------------------------------------1---------0------------| 
G----------------------------------------------------------2-----------------| 
D----------------------------------------------------------------------------| 
A----------------------------------------------------------------------------| 
E----------------------------------------------------------------------------| 

e---------------------------------------------------0------3-------1--------| 
B---------------------------------------------------------------------------| 
G------0------2------2------------------------------------------------------| 
D-------------------------0----------0--------------------------------------| 
A------------------------------3-----------3--------------------------------| 
E---------------------------------------------------------------------------| 


e-----/------12-----12------12-----10---------------------------------------| 
B-----------------------------------------13---12---13---10----8----10---6--| 
G---------------------------------------------------------------------------| 
D---------------------------------------------------------------------------| 
A---------------------------------------------------------------------------| 
E---------------------------------------------------------------------------| 

Well there it is. If you have any comments, Email me. 

roll up this ad to continue

share this page

See Also: