E-Chords
Mcfly

I Wanna Hold You Intro(Tabs)

Mcfly

Hey guys! im pretty sure this is right so here we go... oh and hi tash! i no u were  
4 this tab! 



e---------------------------------------------------------| 
a---------------------------------------------------------| 
d-------1212----10-9----121212----10-9----1212----10-9v---| 
g-------1212------------121212------------1212------------| 
b---------------------------------------------------------| 
e---------------------------------------------------------| 


e----------6-------------8----------------------------------| 
a----------6-------------8----------------------------------| 
d------5h6----------7h8-------------------------------------| 
g-----------------------------------------------------------| 
b-----------------------------------------------------------| 
e-----------------------------------------------------------| 

ok there u go bye 
~sammie~ 

roll up this ad to continue

share this page

See Also: