E-Chords
Mcfly

I Predict A Riot(Tabs)

Mcfly

Not a group that I would usually bother to tab, but I like this song. Performed 
in Radio 1's live lounge on 26.10.05. 

Tabbed by: Aron S* 
Email: [email protected] 
Tuning: Standard 



Intro: 

e|-------------------------------| 
B|-------------------------------| 
G|--5-5-5-5-5-5-5--8-8-8--7-7-7--| x2 
D|--5-5-5-5-5-5-5--8-8-8--7-7-7--| 
A|--3-3-3-3-3-3-3--6-6-6--5-5-5--| 
E|-------------------------------| 

e|-------------------------------------------------------------| 
B|-------------------------------------------------------------| 
G|-----------------------------------------------8-8-8--7-7-7--| 
D|--6-6-6-6-6-6-6--5-5-5-5-5-5-5--3-3-3-3-3-3-3--8-8-8--7-7-7--| 
A|--6-6-6-6-6-6-6--5-5-5-5-5-5-5--3-3-3-3-3-3-3--6-6-6--5-5-5--| 
E|--4-4-4-4-4-4-4--3-3-3-3-3-3-3--1-1-1-1-1-1-1----------------| 


Verse: 

e|--------------------------------------------------------------------| 
B|--------------------------------------------------------------------| 
G|--5-5-5-5-5-5-5-5-5-5-5-5-5-5--8-8-8-8-8-8-8--10-10-10-10-10-10-10--| x4 
D|--5-5-5-5-5-5-5-5-5-5-5-5-5-5--8-8-8-8-8-8-8--10-10-10-10-10-10-10--|   
A|--3-3-3-3-3-3-3-3-3-3-3-3-3-3--6-6-6-6-6-6-6---8--8--8--8--8--8--8--| (first 2 palm mute) 
E|--------------------------------------------------------------------| 

                                               2nd time only 
e|---------------------------------------------|------------| 
B|---------------------------------------------|------------| 
G|--5-5-5-5-5----------------------------------|------------| x2 
D|--5-5-5-5-5--5-5-5-5-5--7-7-7-7-7--3-3-3-3-3-|-3-3-3-3-3--| 
A|--3-3-3-3-3--5-5-5-5-5--7-7-7-7-7--3-3-3-3-3-|-3-3-3-3-3--| 
E|-------------3-3-3-3-3--5-5-5-5-5--1-1-1-1-1-|-1-1-1-1-1--| 


Chorus: 
                                             1st time only 
e|--------------------------------------------|----------| 
B|--------------------------------------------|----------| 
G|-------------------6-6-6-6------------------|-6-6-6-6--| 
D|--6-6-6-6-6-6-6-6--6-6-6-6--6-6-6-6-6-6-6-6-|-6-6-6-6--| x2 
A|--6-6-6-6-6-6-6-6--4-4-4-4--6-6-6-6-6-6-6-6-|-4-4-4-4--| 
E|--4-4-4-4-4-4-4-4-----------4-4-4-4-4-4-4-4-|----------| 


Bridge: 




                      {--palm mute--} 
e|-------------------------------------| 
B|-------------------------------------| 
G|--7~--7-5~--5------------------------| 
D|--7~--7-5~--5-8~--8-6-6-6-6-6-6-6-6--| 
A|--5~--5-3~--3-8~--8-6-6-6-6-6-6-6-6--| 
E|--------------6~--6-4-4-4-4-4-4-4-4--| 


Verse 2: 

e|----------------------------| 
B|---5p3------6h8-------8h10--| 
G|--5~-------8~-------10~-----| x2 
D|--5~-------8~-------10~-----|   
A|--3~-------6~--------8~-----|  
E|----------------------------| 
                                                   2nd time only  
e|---------------------------------------------|-----------------------------| 
B|---------------------------------------------|-----------------------------| 
G|--5-5-5-5-5----------------------------------|-----------------------------| x2 
D|--5-5-5-5-5--5-5-5-5-5--7-7-7-7-7--3-3-3-3-3-|-3-3-3-3-3-3-3-3-3-3-3-3-----| 
A|--3-3-3-3-3--5-5-5-5-5--7-7-7-7-7--3-3-3-3-3-|-3-3-3-3-3-3-3-3-3-3-3-3-etc-| 
E|-------------3-3-3-3-3--5-5-5-5-5--1-1-1-1-1-|-1-1-1-1-1-1-1-1-1-1-1-1-----| 


Bridge/Chorus Merge: 
                                  {  this bit three times  } 
e|-------------------------------|--------------------------|------| 
B|-------------------------------|--------------------------|------| 
G|--7~--7-5~--5----------6-6-6-6-|------------------6-6-6-6-|------| 
D|--7~--7-5~--5-8~--8-6--6-6-6-6-|-6-6-6-6-6-6-6-6--6-6-6-6-|--6~--| 
A|--5~--5-3~--3-8~--8-6--4-4-4-4-|-6-6-6-6-6-6-6-6--4-4-4-4-|--6~--| 
E|--------------6~--6-4----------|-4-4-4-4-4-4-4-4----------|--4~--| 


It goes: 

Intro 
Verse 
Chorus 
Verse 
Chorus 
Bridge 
Intro 
Verse 2 
Chorus 
Bridge/Chorus Merge 

roll up this ad to continue

share this page

See Also: