E-Chords
Mcfly

Corupted(Tabs)

Mcfly

intro 

G|---------------------------------| 
D|---------------------------------|  
A|---------------------------------|   
E|-44444-4-6-7-88888-8-7-6-44444---| 

G|---------------------------------| 
D|---------------------------------| 
A|-------------5-6-8---------------| 
E|-4-6-7-88888---------------------| 

Verse 1 

G|-----------------------------------| 
D|-----------------------------------| 
A|---------4-5-5-----------4-5-------| x 2 
E|---6-6-3-------3--6-6-3------333333| 

Chorus 

G|--------------------------------------------------------| 
D|--------------------------------------------------------| 
A|--------------------------------------------------------| 
E|---4-4-4-4-4-4-4-6-8-8-8-8-8-8-8-6-4-4-4-4-4-4-4-4------| 

G|-------------------------| 
D|-------------------------| 
A|-----------3-3-3-3-------| 
E|---3-3-3-3---------------|  

G|------------------------------------------------| 
D|------------------------------------------------| 
A|------------------------------------------------| 
E|---4-4-4-4-4-4-4-6-8-8-8-8-8-8-8-8-6-6-6-6-6----| 

Intro 

G|----------------------------| 
D|----------------------------|  
A|----------------------------|   
E|-44444-4-6-7-88888-8-7-6----| 

Verse 2 

G|-----------------------------------| 
D|-----------------------------------| 
A|---------4-5-5-----------4-5-------| x 2 
E|---6-6-3-------3--6-6-3------333333| 

G|---------------------| 
D|---------------------| 
A|---------------------| 
E|-4-4-4-4-4-3-3-3-3-3-| 

Chorus 

G|--------------------------------------------------------| 
D|--------------------------------------------------------| 
A|--------------------------------------------------------| 
E|---4-4-4-4-4-4-4-6-8-8-8-8-8-8-8-6-4-4-4-4-4-4-4-4------| 

G|-------------------------| 
D|-------------------------| 
A|-----------3-3-3-3-------| 
E|---3-3-3-3---------------|  

G|------------------------------------------------| 
D|------------------------------------------------| 
A|------------------------------------------------| 
E|---4-4-4-4-4-4-4-6-8-8-8-8-8-8-8-8-6-6-6-6-6----| 


Bridge 

G|---------------------------------------------| 
D|---------------------------------------------| 
A|---------------------------------------------| 
E|---4-4-4-4-4-4-4-4-11-11-11-11-11-11-11-11---| 


G|---------------------------------------------| 
D|---------------------------------------------| 
A|---------------------------------------------| 
E|---4-4-4-4-4-4-4-4-11-11-11-11-10-10-10-10---|  

G|----------------------------------------------------| 
D|----------------------------------------------------| 
A|----------------------------------------------------| 
E|---4-4-4-4-4-4-4-11-11-11-11-11-11-11-11----3---X---|  

Intro 

G|----------------------------| 
D|----------------------------|  
A|----------------------------|   
E|-44444-4-6-7-88888-8-7-6----| 

G|----------------------------| 
D|----------------------------|  
A|----------------------------|   
E|-44444-4-6-7-88888-8-7-6----| 

G|----------------------------| 
D|----------------------------|  
A|----------------------------|   
E|-44444-4-6-7-88888-8-7-6----| 

G|---------------------------------| 
D|---------------------------------| 
A|---------------------------------| 
E|-44444--4-6-7--x-x-x-3--x-x-x-3--| 

Pre-Chorus 

G|---------------------------------------------| 
D|--6-----------10-------------6---------------| 
A|---------------------------------------------| 
E|-4-4-4-4-6-7-8--8-8-8-8-7-6-4-4-4-4-6-7-8\\1-| 


Chorus 

G|--------------------------------------------------------| 
D|--------------------------------------------------------| 
A|--------------------------------------------------------| 
E|---1-1-1-1-1-1-1-6-8-8-8-8-8-8-8-6-4-4-4-4-4-4-4-4------| 

G|-------------------------| 
D|-------------------------| 
A|-----------3-3-3-3-------| 
E|---3-3-3-3---------------|  

G|------------------------------------------------| 
D|------------------------------------------------| 
A|------------------------------------------------| 
E|---4-4-4-4-4-4-4-6-8-8-8-8-8-8-8-8-6-6-6-6-6----| 

G|--------------------------------------| 
D|--------------------------------------| 
A|--------------------------------------| 
E|---3-3-3-3-3-3-3-3---x-x-x-8-x-x-x-8--| 

roll up this ad to continue

share this page

See Also: