E-Chords
Mcfly

Corrupted(Tabs)

Mcfly

Tuning: EADGBE 
    
   INTRO 
e|---------------------------------------------------------------------------| 
B|---------------------------------------------------------------------------| 
G|---------------------------------------------------------------------------| 
D|---6-6-6-6-6----6-8-9---10-10-10-10-10----10-9-8---------------------------| 
A|---6-6-6-6-6----6-8-9---10-10-10-10-10----10-9-8---------------------------| 
E|---4-4-4-4-4----4-6-7---8--8--8--8--8-----8--7-6---------------------------| 

e|---------------------------------------------------------------------------| 
B|---------------------------------------------------------------------------| 
G|------------------3-4---5-5-5-5-5---7-8-10---------------------------------| 
D|---6-6-6-6-6----6-3-4---5-5-5-5-5---7-8-10---------------------------------| 
A|---6-6-6-6-6----6-1-2---3-3-3-3-3---5-6-8----------------------------------| 
E|---4-4-4-4-4----4----------------------------------------------------------| 

   VERSE 1 
e|---------------------------------------------------------------------------| 
B|---------------------------------------------------------------------------| 
G|---------------------------------------------------------------------------| 
D|---6-6-6-6-6-6-6-6---5-5-5-5-5-5-5-5---4-4-4-4-4-4-4-4---5-5-5-5-5-5-5-5---| 
A|----6-6-6-6-6-6-6-6---3-3-3-3-3-3-3-3---5-5-5-5-5-5-5-5---5-5-5-5-5-5-5-5--| 
E|---------------------------------------------------------------------------| 

e|---------------------------------------------------------------------------|    -----| 
B|---------------------------------------------------------------------------|         | 
G|---------------------------------------------------------------------------|         | 
D|---6-6-6-6-6-6-6-6---5-5-5-5-5-5-5-5---4-4-4-4-4-4-4-4----5-5-5-5-5-5-5-5--|  GTR 1  | 
A|----6-6-6-6-6-6-6-6---3-3-3-3-3-3-3-3---5-5-5-5-5-5-5-5---5-5-5-5-5-5-5-5--|         | 
E|----------------------------------------------------------3-3-3-3-3-3-3-3--|         | 
                                                                                       | 
e|---------------------------------------------------------------------------|         | 
B|---8-6-------6----------------------------------------------------6--------|         | 
G|-------8-7h8---8-7-8-5---8-7-8---8-7-8---8-7-8-7~----8-7-8-7~---8---8-7~---|  GTR 2  | 
D|---------------------------------------------------------------------------|         | 
A|---------------------------------------------------------------------------|         | 
E|---------------------------------------------------------------------------|    -----| 


   Chorus 
e|---------------------------------------------------------------------------| 
B|---------------------------------------------------------------------------| 
G|---------------------------------------------------------------------------| 
D|---6-6-6-6-6-6-6//-8-\\10-10-10-10-10-10-10//-8-\\6-6-6-6-6-6-6-6----------| 
A|---6-6-6-6-6-6-6//-8-\\10-10-10-10-10-10-10//-8-\\6-6-6-6-6-6-6-6----------| 
E|---4-4-4-4-4-4-4//-6-\\8--8--8--8--8--8--8-//-6-\\4-4-4-4-4-4-4-4----------| 

e|-------------------------|         |----8-6---------8-6--------------------| 
B|-------------------------|         |--8-----------8-----8/9\8~~~-----------| 
G|------------5-5-5-5------|  GTR2 ->|--------8~~----------------------------| 
D|---5-5-5-5--5-5-5-5------|         |---------------------------------------| 
A|---5-5-5-5--3-3-3-3------|         |---------------------------------------| 
E|---3-3-3-3---------------|         |---------------------------------------| 

e|---------------------------------------------------------------------------| 
B|---------------------------------------------------------------------------| 
G|---------------------------------------------------------------------------| 
D|---6-6-6-6-6-6-6//-8-\\10-10-10-10-10-10-10-10--8-8-8-8-8------------------| 
A|---6-6-6-6-6-6-6//-8-\\10-10-10-10-10-10-10-10--8-8-8-8-8------------------| 
E|---4-4-4-4-4-4-4//-6-\\8--8--8--8--8--8--8--8---6-6-6-6-6------------------| 

   INTRO 
e|---------------------------------------------------------------------------| 
B|---------------------------------------------------------------------------| 
G|---------------------------------------------------------------------------| 
D|---6-6-6-6-6----6-8-9---10-10-10-10-10----10-9-8---------------------------| 
A|---6-6-6-6-6----6-8-9---10-10-10-10-10----10-9-8---------------------------| 
E|---4-4-4-4-4----4-6-7---8--8--8--8--8-----8--7-6---------------------------| 


   VERSE 2 
e|---------------------------------------------------------------------------| 
B|---------------------------------------------------------------------------| 
G|---------------------------------------------------------------------------| 
D|---6-6-6-6-6-6-6-6---5-5-5-5-5-5-5-5---4-4-4-4-4-4-4-4---5-5-5-5-5-5-5-5---| 
A|----6-6-6-6-6-6-6-6---3-3-3-3-3-3-3-3---5-5-5-5-5-5-5-5---5-5-5-5-5-5-5-5--| 
E|---------------------------------------------------------------------------| 

e|---------------------------------------------------------------------------|    -----| 
B|---------------------------------------------------------------------------|         | 
G|---------------------------------------------------------------------------|         | 
D|---6-6-6-6-6-6-6-6---5-5-5-5-5-5-5-5---4-4-4-4-4-4-4-4----5-5-5-5-5-5-5-5--|  GTR 1  | 
A|----6-6-6-6-6-6-6-6---3-3-3-3-3-3-3-3---5-5-5-5-5-5-5-5---5-5-5-5-5-5-5-5--|         | 
E|----------------------------------------------------------3-3-3-3-3-3-3-3--|         | 
                                                                                       | 
e|---------------------------------------------------------------------------|         | 
B|---8-6-------6-8--------------------------------------------------6--------|         | 
G|-------8-7h8-----7-8-5---8-7-8---8-7-8---8-7-8~------8-7-8-7~---8---8-7~---|  GTR 2  | 
D|---------------------------------------------------------------------------|         | 
A|---------------------------------------------------------------------------|         | 
E|---------------------------------------------------------------------------|    -----| 

e|---------------------------------------------------------------------------| 
B|---------------------------------------------------------------------------| 
G|---------------------------------------------------------------------------| 
D|--6-6-6-6-6-6-6-6-6-6-6-6-6-6-6-6--5-5-5-5-5-5-5-5-------------------------| 
A|--6-6-6-6-6-6-6-6-6-6-6-6-6-6-6-6--5-5-5-5-5-5-5-5-------------------------| 
E|--4-4-4-4-4-4-4-4-4-4-4-4-4-4-4-4--3-3-3-3-3-3-3-3-------------------------| 
    x x x x x x x x x x x x x x x x  x x x x x x x 
    Mistakes.... Mistakes.... Mistakes.... Mistakes.... 

   Chorus 
e|---------------------------------------------------------------------------| 
B|---------------------------------------------------------------------------| 
G|---------------------------------------------------------------------------| 
D|---6-6-6-6-6-6-6//-8-\\10-10-10-10-10-10-10//-8-\\6-6-6-6-6-6-6-6----------| 
A|---6-6-6-6-6-6-6//-8-\\10-10-10-10-10-10-10//-8-\\6-6-6-6-6-6-6-6----------| 
E|---4-4-4-4-4-4-4//-6-\\8--8--8--8--8--8--8-//-6-\\4-4-4-4-4-4-4-4----------| 

e|-------------------------|         |----8-6---------8-6--------------------| 
B|-------------------------|         |--8-----------8-----8/9\8~~~-----------| 
G|------------5-5-5-5------|  GTR2 ->|--------8~~----------------------------| 
D|---5-5-5-5--5-5-5-5------|         |---------------------------------------| 
A|---5-5-5-5--3-3-3-3------|         |---------------------------------------| 
E|---3-3-3-3---------------|         |---------------------------------------| 

e|---------------------------------------------------------------------------| 
B|---------------------------------------------------------------------------| 
G|---------------------------------------------------------------------------| 
D|---6-6-6-6-6-6-6//-8-\\10-10-10-10-10-10-10-10--8-8-8-8-8------------------| 
A|---6-6-6-6-6-6-6//-8-\\10-10-10-10-10-10-10-10--8-8-8-8-8------------------| 
E|---4-4-4-4-4-4-4//-6-\\8--8--8--8--8--8--8--8---6-6-6-6-6------------------| 

   BRIDGE 
e|---------------------------------------------------------------------------|    -----| 
B|---------------------------------------------------------------------------|         | 
G|---------------------------------------------------------------------------|         | 
D|---6-6-6-6-6-6-6-6//13-13-13-13-13-13-13-13--------------------------------|  GTR 1  | 
A|---6-6-6-6-6-6-6-6//13-13-13-13-13-13-13-13--------------------------------|         | 
E|---4-4-4-4-4-4-4-4//11-11-11-11-11-11-11-11--------------------------------|         | 
                                                                                       | 
e|-------------------------------------6-6-----------6-6---------------------|         | 
B|---8-8-6-6---------8-8-6-6---------------8-8-6-6-------8-8-6-6-------------|         | 
G|-----------8-8-5-5---------8-8-5-5---------------8-------------8-----------|  GTR 2  | 
D|---------------------------------------------------------------------------|         | 
A|---------------------------------------------------------------------------|         | 
E|---------------------------------------------------------------------------|    -----| 


e|---------------------------------------------------------------------------|    -----| 
B|---------------------------------------------------------------------------|         | 
G|---------------------------------------------------------------------------|         | 
D|---6-6-6-6-6-6-6-6//13-13-13-13-12-12-12-12--------------------------------|  GTR 1  | 
A|---6-6-6-6-6-6-6-6//13-13-13-13-12-12-12-12--------------------------------|         | 
E|---4-4-4-4-4-4-4-4//11-11-11-11-10-10-10-10--------------------------------|         | 
                                                                                       | 
e|-------------------------------------6-6-----------6-6---------------------|         | 
B|---8-8-6-6---------8-8-6-6---------------8-8-6-6-------8-8-6-6-------------|         | 
G|-----------8-8-5-5---------8-8-5-5---------------8-------------8-----------|  GTR 2  | 
D|---------------------------------------------------------------------------|         | 
A|---------------------------------------------------------------------------|         | 
E|---------------------------------------------------------------------------|    -----| 

e|---------------------------------------------------------------------------|    -----| 
B|---------------------------------------------------------------------------|         | 
G|---------------------------------------------------------------------------|         | 
D|---6-6-6-6-6-6-6-6//13-13-13-13-13-13-13-13----5---X-----------------------|  GTR 1  | 
A|---6-6-6-6-6-6-6-6//13-13-13-13-13-13-13-13----5---X-----------------------|         | 
E|---4-4-4-4-4-4-4-4//11-11-11-11-11-11-11-11----3---X-----------------------|         | 
                                                                                       | 
e|-------------------------------------6-6-----------6-6---------------------|         | 
B|---8-8-6-6---------8-8-6-6---------------8-8-6-6-------8-8-6-6h8-----------|         | 
G|-----------8-8-5-5---------8-8-5-5---------------8-------------------------|  GTR 2  | 
D|---------------------------------------------------------------------------|         | 
A|---------------------------------------------------------------------------|         | 
E|---------------------------------------------------------------------------|    -----| 


   INTRO 
e|---------------------------------------------------------------------------| 
B|---------------------------------------------------------------------------| 
G|---------------------------------------------------------------------------| 
D|---6-6-6-6-6----6-8-9---10-10-10-10-10----10-9-8---------------------------| 
A|---6-6-6-6-6----6-8-9---10-10-10-10-10----10-9-8---------------------------| 
E|---4-4-4-4-4----4-6-7---8--8--8--8--8-----8--7-6---------------------------| 

e|---------------------------------------------------------------------------| 
B|---------------------------------------------------------------------------| 
G|---------------------------------------------------------------------------| 
D|---6-6-6-6-6----6-8-9---10-10-10-10-10----10-9-8---------------------------| 
A|---6-6-6-6-6----6-8-9---10-10-10-10-10----10-9-8---------------------------| 
E|---4-4-4-4-4----4-6-7---8--8--8--8--8-----8--7-6---------------------------| 

e|---------------------------------------------------------------------------| 
B|---------------------------------------------------------------------------| 
G|---------------------------------------------------------------------------| 
D|---x-x-x-x-6----6-8-9---10-10-10-10-10----10-9-8---------------------------| 
A|---x-x-x-x-6----6-8-9---10-10-10-10-10----10-9-8---------------------------| 
E|---x-x-x-x-4----4-6-7---8--8--8--8--8-----8--7-6---------------------------| 

e|---------------------------------------------------------------------------| 
B|---------------------------------------------------------------------------| 
G|---------------------------------------------------------------------------| 
D|---6-6-6-6-6----6-8-9---x-x-x-5--x-x-x-5-----------------------------------| 
A|---6-6-6-6-6----6-8-9---x-x-x-5--x-x-x-5-----------------------------------| 
E|---4-4-4-4-4----4-6-7---x-x-x-3--x-x-x-3-----------------------------------| 

   PRE-Chorus 
e|---11-11-11-11-11-x-11-11-11-x-11---13-13-13-13-13-x-13-13-13-x-13---------| 
B|---13-13-13-13-13-x-13-13-13-x-13---13-13-13-13-13-x-13-13-13-x-13---------| 
G|---13-13-13-13-13-x-13-13-13-x-13---15-15-15-15-15-x-15-15-15-x-15---------| 
D|---------------------------------------------------------------------------| 
A|---------------------------------------------------------------------------| 
E|---------------------------------------------------------------------------| 

e|---11-11-11-11-11-x-11-11-11-x-11---10\\\\---------------------------------| 
B|---13-13-13-13-13-x-13-13-13-x-13---12\\\\---------------------------------| 
G|---13-13-13-13-13-x-13-13-13-x-13---12\\\\---------------------------------| 
D|---------------------------------------------------------------------------| 
A|---------------------------------------------------------------------------| 
E|---------------------------------------------------------------------------| 

   Chorus 
e|---------------------------------------------------------------------------| 
B|---------------------------------------------------------------------------| 
G|---------------------------------------------------------------------------| 
D|---3-3-3-3-3-3-3//-8-\\10-10-10-10-10-10-10//-8-\\6-6-6-6-6-6-6-6----------| 
A|---3-3-3-3-3-3-3//-8-\\10-10-10-10-10-10-10//-8-\\6-6-6-6-6-6-6-6----------| 
E|---1-1-1-1-1-1-1//-6-\\8--8--8--8--8--8--8-//-6-\\4-4-4-4-4-4-4-4----------| 

e|-------------------------|         |----8-6---------8-6--------------------| 
B|-------------------------|         |--8-----------8-----8/9\8~~~-----------| 
G|------------5-5-5-5------|  GTR2 ->|--------8~~----------------------------| 
D|---5-5-5-5--5-5-5-5------|         |---------------------------------------| 
A|---5-5-5-5--3-3-3-3------|         |---------------------------------------| 
E|---3-3-3-3---------------|         |---------------------------------------| 

e|---------------------------------------------------------------------------| 
B|---------------------------------------------------------------------------| 
G|---------------------------------------------------------------------------| 
D|---6-6-6-6-6-6-6//-8-\\10-10-10-10-10-10-10-10--8-8-8-8-8-8-8-8------------| 
A|---6-6-6-6-6-6-6//-8-\\10-10-10-10-10-10-10-10--8-8-8-8-8-8-8-8------------| 
E|---4-4-4-4-4-4-4//-6-\\8--8--8--8--8--8--8--8---6-6-6-6-6-6-6-6------------| 

e|---------------------------------------------------------------------------| 
B|---------------------------------------------------------------------------| 
G|---------------------------------------------------------------------------| 
D|---5-5-5-5-5-5-5-5----x-x-x-10-x-x-x-10------------------------------------| 
A|---5-5-5-5-5-5-5-5----x-x-x-10-x-x-x-10------------------------------------| 
E|---3-3-3-3-3-3-3-3----x-x-x-8--x-x-x-8-------------------------------------| 


| /  slide up 
| \  slide down 
| h  hammer-on 
| p  pull-off 
| ~  vibrato 
| +  harmonic 
| x  Mute note 

roll up this ad to continue

share this page

See Also: