E-Chords
Mcfly

Chills In The Evening (Solo)(Tabs)

Mcfly

chills in the evening 

standard tuning 


e|--------------------------------------------------9-9-8-8-4s6(hold note)--| 
B|--------------------------9-----------------------------------------------| 
G|--6h8p6-8-8b10(hold bend)----(release-bend)-6h8-6-------------------------| 
D|--------------------------------------------------------------------------| 
A|--------------------------------------------------------------------------| 
E|--------------------------------------------------------------------------| 

e|--6h8p6-------------------------------------------------------------------| 
B|----------8-6-------------------------------------------------------------| 
G|----------------8-6-6-----------------------------------------------------| 
D|----------------------8-8-----(slide fingers up,down then back up)--------| 
A|--------------------------------------------------------------------------|  
E|--------------------------------------------------------------------------| 

e|--------------------------------------------------------------------------| 
B|--------------------------------------------------------------------------| 
G|------6-6----8b9-8b9---6h8------------------------------------------------| 
D|--6-8---------------------------------------------------------------------| 
A|--------------------------------------------------------------------------| 
E|---------------------------12-11-9~-9h11-9--------------------------------| 

e|--9h11p9-11-9-------------------------------------------------------------| 
B|---------------12-9---????????????????------------------------------------| 
G|--------------------------------------------------------------------------| 
D|--------------------------------------------------------------------------| 
A|--------------------------------------------------------------------------| 
E|--------------------------------------------------------------------------| 

ANY QUESTIONS SEND THEM 2 * 

roll up this ad to continue

share this page

See Also: