E-Chords
Mcfly

Bubblewrap(Tabs)

Mcfly

Key: C
Intro Piano Riff: 
|-------21-20-------18------------------------------| 
|----18----------18----21-------19-18-------16------| 
|-18----------18----------18-18-------18-18---------| 
|---------------------------------------------------| 
|---------------------------------------------------| 
|---------------------------------------------------| (x2) 

|-------21-20-------18------------------------------------------------------| 
|----18----------18----21-------19-18-------16-16---16----16----16----------| 
|-18----------18----------18-18-------18-18----17---17----18----17----------| 
|------------------------------------------------------18----18----18-------| 
|---------------------------------------------------------------------------| 
|---------------------------------------------------------------------------|
Verse: C C/B Am I wish I could Bubble Wrap my heart, C/B C C/B Am In case I fall and break apart, C C/B Am I'm not God I can't change the stars, C/B C C/B Am And I don't know if there's life on Mars, F But I know you're hurt, Am People that you love and those who care for you, Dm Fm G I want nothing to do with the things you're going through. Chorus: C Em This is the last time, Am I give up this heart of mine, F I'm telling you that I'm, G A broken man who's finally realized, C Em You're standing in moonlight, Am But you're black on the inside, F Ooo oo oo ooo, Dm G Do you think you ought to cry? C This is goodbye. Verse 2: C C/B Am I'm a little dazed and confused, C/B C C/B Am G Life's a bitch and so are you, C C/B Am All my days have turned into nights, C/B C C/B Am 'Cause living without, without, without you in my life, F And you wrote the book on how to be a liar, Am And lose all your friends, Dm Did I mean nothing at all? Fm G Was I just another ghost that's been in your bed? Chorus: C Em This is the last time, Am I give up this heart of mine, F I'm telling you that I'm, G A broken man who's finally realized, C Em You're standing in moonlight, Am But you're black on the inside, F Ooo oo oo ooo, Dm G Do you think you ought to cry? C This is goodbye.
|-----------------------------------| 
|-14----13----12----11----10--------| 
|-16b18-15b17-14b16-13b15-12b14-----| 
|-----------------------------------| 
|-----------------------------------| 
|-----------------------------------| 

Yeah! 
G# 
Turn on the radio honey, 
Bb                                                C 
Cause every single sad song you'll be able to relate! 
Gtr II  
|-----------------------| 
|-----------------------| 
|-----------------------| 
|-----------------------| 
|-4~-------4-2~---------| 
|----0-1-4--------------| 

|------------------------------------------------------------------| 
|-14-------------14------------------------------------------------| 
|-16b18-------13----16~--16-15~--14h15p14~-------------------------| 
|-------14-15------------------------------------------------------| 
|------------------------------------------------------------------| 
|------------------------------------------------------------------|
Whoa oh! G# Don't get all emotional baby, F# G You can never talk to me your unable to communicate! Chorus: C Em This is the last time, Cm I give up this heart of mine, F I'm telling you that I'm, G# Bb A broken man who's finally realized Chorus: Eb This is the last time, Cm I give up this heart of mine, G# I'm telling you that I'm, Bb A broken man who's finally realized, Eb You're standing in moonlight, Cm But you're black on the inside, G# Ooo oo oo ooo, Fm G# Do you think you ought to cry? Eb This is goodbye.
Orchestra Ending: 
|-------12-11---9----------------------12-11---9------------------------12-11---9-| 
|-----9-------9---12---10-9----------9-------9---12---9h10-9----------9-------9---| 
|-7s9----------------9------11b13r-9----------------9--------11b13r-9-------------| 
|---------------------------------------------------------------------------------| 
|---------------------------------------------------------------------------------| 
|---------------------------------------------------------------------------------| 

|-------------------------------------| 
|-12---9b10r--------------------------| 
|----9-------11--11s12~--12s14~-------| 
|-------------------------------------| 
|-------------------------------------| 
|-------------------------------------| 

This is Goodbye 


Outro Piano: 
|-----12-11---9-------------------12------| 
|---9-------9---12---10-9---------12------| 
|-9----------------9-------9-11---13------| 
|-----------------------------------------| 
|-----------------------------------------| 
|-----------------------------------------|

roll up this ad to continue

share this page

See Also: