E-Chords
Mcfly

Bank Heist (live)(Tabs)

Mcfly

Intro-Bank Heist (From the Wonderland DVD:Live In Manchester) 
Tuning: Standard 
Transcribed by Soch H. 

I think they took this song from Rage Against the Machine's 'Take The Power 
Back' because it sounds exactly like it. It's a cool jam session though. 

Note: Two Guitars Play In The Song 

-Bass Riff Starts- 

Intro Riff: (1:03) 
|------------------------------| 
|------------------------------| 
|--------------x---------------| 
|------------5-x-----5~--------| 
|--------5h7---x-5h7-----------| 
|---0-0------------------0-0---|(x3) 

Main Part: 
Gtr I: 
|------------------------------| 
|------------------------------| 
|--------------x---------------| 
|------------5-x-----5~--------| 
|--------5h7---x-5h7-----------| 
|---0-0------------------0-0---| 
Gtr II: 
|------------------------------| 
|------------------------------| 
|--14--14b16==--14p12----------| 
|---------------------14~------| 
|------------------------------| 
|------------------------------| 

Gtr I: 
|------------------------------| 
|------------------------------| 
|--------------x---------------| 
|------------5-x-----5~--------| 
|--------5h7---x-5h7-----------| 
|---0-0------------------0-0---| 
Gtr II: 
|---------12-----------------------| 
|-------12--15p12-15b17==-15p12----| 
|-14b16------------------------14~-| 
|----------------------------------| 
|----------------------------------| 
|----------------------------------| 

Gtr I: 
|------------------------------| 
|--------------x---------------| 
|------------5-x-----5~--------| 
|--------5h7---x-5h7-----------| 
|---0-0------------------0-0---| 
|------------------------------| 
Gtr II: 





|-15p14p12-15p14p12-15p14p12-15p14p12-15b17=-15p12-----| 
|--------------------------------------------------15~-| 
|------------------------------------------------------| 
|------------------------------------------------------| 
|------------------------------------------------------| 
|------------------------------------------------------| 

Gtr I: 
|------------------------------| 
|------------------------------| 
|--------------x---------------| 
|------------5-x-----5~--------| 
|--------5h7---x-5h7-----------| 
|---0-0------------------0-0---| 
Gtr II: 
|------------------------------| 
|------------------------------| 
|-7=b9--7b9--7b9--7b9----------| 
|------------------------------| 
|------------------------------| 
|------------------------------| 

Gtr I: 
|--------------------------------------------------------------------------| 
|--------------------------------------------------------------------------| 
|------------7-x-----7~---------------------------x------------------------| 
|--------7h9---x-7h9------9--8--7--5------------5-x-----5~---2--2--2--2--2-| 
|--------------x----------9--8--7--5--------5h7---x-5h7------2--2--2--2--2-| 
|---7-7-------------------7--6--5--3---0-0-------------------0--0--0--0--0-| 
                                                        PM|------------| 
(1:45) 
|----------------------|-------------------|--------------------| 
|----------------------|-------------------|--------------------| 
|-9--9--9--9--x-x-x--7-|-9--9--9--9-x-9--7-|-9--9--9--9-x-9--7--| 
|-x--x--x--x--x-x-x--x-|-x--x--x--x-x-x--x-|-x--x--x--x-x-x--x--| 
|-7--7--7--7--x-x-x--5-|-7--7--7--7-x-7--5-|-7--7--7--7-x-7--5--| 
|----------------------|-------------------|--------------------| 

|--------------------|---------------------|---------------------| 
|--------------------|---------------------|---------------------| 
|-9--9--9--9-x-9--12-|-14-14-14-14-x-14-12-|-14-14-14-14\--7--7--| 
|-x--x--x--x-x-x---x-|--x--x--x--x-x--x--x-|--x--x--x--x---x--x--| 
|-7--7--7--7-x-7--10-|-12-12-12-12-x-12-10-|-12-12-12-12\--5--5--| 
|--------------------|---------------------|---------------------| 

|----------------------|-------------| 
|----------------------|-------------| 
|-9--9--9--9--x-x-x--7-|-9--9--9--9\-| 
|-x--x--x--x--x-x-x--x-|-x--x--x--x--| 
|-7--7--7--7--x-x-x--5-|-7--7--7--7\-| 
|----------------------|-------------| 

|------------------------------------|-------------| 
|------------------------------------|-------------| 
|------------7-x-----7~--------------|-------------| 
|--------7h9---x-7h9------9--8--7--5-|-9--8--7--5--| 
|--------------x----------9--8--7--5-|-9--8--7--5--| 
|---7-7-------------------7--6--5--3-|-7--6--5--3--| 

|--------------------------------------| 
|--------------------------------------| 
|--------------------------------------| 
|--------9--------8--------7--------5--| 
|--------9--------8--------7--------5--| 
|---7-7--7---6-6--6---5-5--5---3-3--3--| 
 PM|---|  PM|---|  PM|---|  PM|---| 

|-------------------------0--------| 
|-------------------------0--------| 
|-------------------------1--------| 
|-9-9--8-8--7-7--5-5------2--------| 
|-9-9--8-8--7-7--5-5------2--------| 
|-7-7--6-6--5-5--3-3------0--------| 

There you go. Please feel free to comment and rate. you can send feedback to me at 

[email protected] or you can just P.M. me. This is a great jam to play with 
friends.

roll up this ad to continue

share this page

See Also: