E-Chords
Mcfly

Ballad Of Paul K(Tabs)

Mcfly

 E|--7--7--7--5--5--5--3--3--3--2--0---------------| 
 B|--0--0--0--0--0--0--0--0--0--0--0--3-2-3s5------| 
 G|--0--0--0--0--0--0--0--0--0--0--0---------------| 
 D|------------------------------------------------| 
 A|------------------------------------------------| 
 E|------------------------------------------------| 

 E|-2--0--3--0--2------------------| 
 B|-3--2--2--3--3------------------| 
 G|-2--0--0--2--2------------------| 
 D|-0--2--2--0--0------------------|   (x2) 
 A|----0--0------------------------| 
 E|--------------------------------| 

roll up this ad to continue

share this page

See Also: