E-Chords
Mcfly

5 Colours In Her Hair Bass(Tabs)

Mcfly

intro: 

G|-----------------------------------------------------|\ 
D|------------------------1-2-3--3-1-3-1---------------| \ 
A|----------1-2-3--1-3--5----------------5-4-3--1-3----|  \ 
E|-3--1-3-3--------------------------------------------|   \ 
							    X2 
G|-----------------------------------------------------|   / 
D|---1-2-3--3-1-3-1-------------------0000000000000000-|  / 
A|-5----------------5-4-3--1-3--1-3-4------------------| / 
E|-----------------------------------------------------|/ 

______________________________________________________________ 

verse 1: 

G|-----------------------------------------------------| 
D|-----------------------------------------0--0-0-0----| 
A|-----------------------------------------------------| 
E|-3X--1--1-1-1---3--3-3-3--3X--1--1-1-1---------------| 

G|-----------------------------------------------------| 
D|-----------------------------------------------------| 
A|-----------------------------------------------------| 
E|-3--3-3-3---3--3-3-3---1--1-1-1---3--3-3-3-----------| 

G|-----------------------------------------------------| 
D|-----------------------------------------------------| 
A|-3--3-3-3---5X---------------------------------------| 
E|-----------------------------------------------------| 

_______________________________________________________________ 

Chorus 1: 

G|-----------------------------------------------------| 
D|-----------2--22-2-----------------------------------| 
A|---------------------3--33-3---5--55-5---------------| 
E|-3--33-3---------------------------------------------| 

G|-----------------------------------------------------| 
D|-----------2--22-2-----------------------------------| 
A|---------------------3--33-3---5--55-5---------------| 
E|-3--33-3---------------------------------------------| 

G|-----------------------------------------------------| 
D|-------------------------------2--22-2---------------| 
A|-3--33-3---5--55-5---2--22-2-------------------------| 
E|-----------------------------------------------------| 

G|-----------------------------------------------------| 
D|-----------------------------------------------------| 
A|-3--33-3---5X----------------------------------------| 
E|-----------------------------------------------------| 

_______________________________________________________________ 

Riff: 

G|-----------------------------------------------------| 
D|-----------------------------------------------------| 
A|-----------------------------------------------------| 
E|-3--1-3--3333--1-3--333------------------------------| 

_______________________________________________________________ 

verse 2: 

G|-----------------------------------------------------| 
D|-----------------------------------------0--0-0-0----| 
A|-----------------------------------------------------| 
E|-3X--1--1-1-1---3--3-3-3--3X--1--1-1-1---------------| 

G|-----------------------------------------------------| 
D|-----------------------------------------------------| 
A|-----------------------------------------------------| 
E|-3--3-3-3---3--3-3-3---1--1-1-1---3--3-3-3-----------| 

G|-----------------------------------------------------| 
D|-----------------------------------------------------| 
A|-3--33333333---33---5--55555555----------------------| 
E|-----------------------------------------------------| 

_______________________________________________________________ 

Chorus 2: 

G|-----------------------------------------------------| 
D|-----------2--22-2-----------------------------------| 
A|---------------------3--33-3---5--55-5---------------| 
E|-3--33-3---------------------------------------------| 

G|-----------------------------------------------------| 
D|-----------2--22-2-----------------------------------| 
A|---------------------3--33-3---5--55-5---------------| 
E|-3--33-3---------------------------------------------| 

G|-----------------------------------------------------| 
D|-------------------------------2--22-2---------------| 
A|-3--33-3---5--55-5---2--22-2-------------------------| 
E|-----------------------------------------------------| 

G|-----------------------------------------------------| 
D|-----------------------------------------------------| 
A|-3--33-3---5X----------------------------------------| 
E|-----------------------------------------------------| 

_______________________________________________________________ 

interlude: 

G|-----------------------------------------------------| 
D|-----------------------------------------------------| 
A|--------------------------------0-0------------------| 
E|-33333333-22222222---0-0--0-0---------3-3------------| 

G|-----------------------------------------------------| 
D|-----------------------------------------0-0---------| 
A|-------------------------------------3---------------| 
E|-1-1--1-1--1(ring)------3---0-0----------------------| 

G|-----------------------------------------------------| 
D|----------------------0-0----------0-0---------------| 
A|------------------3------------3---------------------| 
E|-----3---0-0-----------------------------------------| 

G|-----------------------------------------------------| 
D|-----------2-0---------------------------------------| 
A|-----2---------3------3------------------------------| 
E|---------------------3-------------------------------| 

_______________________________________________________________ 

solo: 

G|-----------------------------------------------------| 
D|---1-2-3--3-1-3-1-------------------0000000000000000-| 
A|-5----------------5-4-3--1-3--1-3-4------------------| 
E|-----------------------------------------------------| 

_______________________________________________________________ 

Chorus (last): 

G|-----------------------------------------------------| 
D|-----------2X----------------------------------------| 
A|---------------------3--33-3---5--55-5---------------| 
E|-3X--------------------------------------------------| 

G|-----------------------------------------------------| 
D|-----------2--22-2-----------------------------------| 
A|---------------------3--33-3---5--55-5---------------| 
E|-3--33-3---------------------------------------------| 

G|-----------------------------------------------------| 
D|-------------------------------2--22-2---------------| 
A|-3--33-3---5--55-5---2--22-2-------------------------| 
E|-----------------------------------------------------| 

G|-----------------------------------------------------| 
D|-----------------------------------------------------| 
A|-3--33-3---5--55-5-----------------------------------| 
E|-----------------------3X----------------------------| 

outro: 

G|-----------------------------------------------------| 
D|------------------------1-2-3--3-1-3-1---------------| 
A|----------1-2-3--1-3--5----------------5-4-3--1-3----| 
E|-3--1-3-3--------------------------------------------| 

G|-----------------------------------------------------| 
D|---1-2-3--3-1-3-1-------------------2(ring)----------| 
A|-5----------------5-4-3--1-3--1-3-4------------------| 
E|-----------------------------------------------------| 

roll up this ad to continue

share this page

See Also: