E-Chords
Mccoy Tyner

Island Birdie(Tabs)

Mccoy Tyner

Key: A
Tuning: Standard 

A   
  
 Eb               Fm7     Bb7      Gm7      C7      Fm7      Bb7   
e|----------------|----------------|----------------|----------------| 
B|----------------|----------------|----------------|----------------| 
G|3---------3---5-|----------------|3---------3-----|----------------| 
D|----5-----------|----------------|----5---------6-|--3-------------| 
A|------6---------|----------------|------6---------|------5---------| 
E|----------------|----------------|----------------|--------6-------| 

  Dm7(b5)  G7      Cm7      F7      Fm7      Bb7     Eb 
e|----------------|----------------|----------------|----------------| 
B|----------3-----|----------------|----------------|----------------| 
G|----5-4-------5-|----------------|----------------|----------------| 
D|5---------------|--5-----3-------|3---5-3---------|----------------| 
A|----------------|------6---------|----------3---6-|----------------| 
E|----------------|----------------|----------------|----------------| 

B 

  Ab7                               Gbm7    B7      Gbm7     B7 
e|----------------|----------------|----------------|----------------| 
B|----------------|----------------|----------------|----------------| 
G|--------------3-|----------------|----------------|----------------| 
D|4---------------|--6---4-----4---|6---------------|----------------| 
A|----------------|--------6-------|----------------|----------------| 
E|----------------|----------------|----------------|----------------| 

  Ab7                               Fm7     Bb7      Gbm7     B7 
e|----------------|----------------|----------------|----------------| 
B|----------------|----------------|----------------|----------------| 
G|--------------3-|------------3---|----------------|----------------| 
D|4---------------|--6---4---------|6---------------|----------------| 
A|----------------|--------6-------|----------------|----------------| 
E|----------------|----------------|----------------|----------------| 

  Ab7         Bb7 
e|----------------|----------------| 
B|----------------|----------------| 
G|3-----3-----3---|----------------| 
D|----------------|----------------| 
A|----------------|----------------| 
E|----------------|----------------| 

roll up this ad to continue

share this page

See Also: