E-Chords
Mattrach

This Is L(Tabs)

Mattrach

roll up this ad to continue

Hey Guys this is my first tab, A song by Mattrach called ( This is L ) I've heard this song  
long time ago and i really wanted to play it but there wasnt any tabs so i made them :D 
Its not 100% accurate and you need to listen to the original one on youtube to understand it  
this is not the backing track. Enjoy 



E|-----------------------------------------------10--12--13----------10--10--10h12--8--|-- 
B|--10--10--10--10h11p10--10h11--10--6--6/8--10--------------11--11--------------------|-- 
G|-------------------------------------------------------------------------------------|-- X2 
D|-------------------------------------------------------------------------------------|-- 
A|-------------------------------------------------------------------------------------|-- 
E|-------------------------------------------------------------------------------------|-- 


E|-----------------------------------------------------------------13--12----------|----- 
B|--8--6--8--8/10--10--10--10--10h11p10--10--10--10h11p10--10--10----------10--10--|----- 
G|---------------------------------------------------------------------------------|----- 
D|---------------------------------------------------------------------------------|----- 
A|---------------------------------------------------------------------------------|----- 
E|---------------------------------------------------------------------------------|----- 

E|------------------------------------------10--12--13------8/10--10--10--10--9--9--6--6\5--|-- 
B|--10--10--10h11p10--10--10--10h11p10--10--------------11----------------------------------|-- 
G|------------------------------------------------------------------------------------------|-- 
D|------------------------------------------------------------------------------------------|-- 
A|------------------------------------------------------------------------------------------|-- 
E|------------------------------------------------------------------------------------------|-- 

E|-----------------------------------------------------------------13--12------|-- 
B|--------8--8/10--10--10--10--10h11p10--10--10--10h11p10--10--10----------10--|-- 
G|-----------------------------------------------------------------------------|-- 
D|-----------------------------------------------------------------------------|-- 
A|-----------------------------------------------------------------------------|-- 
E|-----------------------------------------------------------------------------|-- 
						 
E|------------------------------------------10--12--13------8/10--10--10--10--9--9--6--6\5--|-- 
B|--10--10--10h11p10--10--10--10h11p10--10--------------11----------------------------------|-- 
G|------------------------------------------------------------------------------------------|-- 
D|------------------------------------------------------------------------------------------|-- 
A|------------------------------------------------------------------------------------------|-- 
E|------------------------------------------------------------------------------------------|-- 

E|------------------------------------------------------------------------10--12--13----|- 
B|-10------10-10-10-10-10-10-10-10-10-10-10-10--10--10h11--10--6--6/8--10------------11-|- 
G|--------------------------------------------------------------------------------------|- 
D|--------------------------------------------------------------------------------------|- 
A|--------------------------------------------------------------------------------------|- 
E|--------------------------------------------------------------------------------------|- 

~Backing Track~                              ~Backing Track~ 


E|-------10-13-12-10------------------------------------------------------------13-12-------|- 
B|-10-11-------------11--8--8/10--8--8--6--8--8/10--10--10--10--10h11p10--10-10-------10-10-|- 
G|------------------------------------------------------------------------------------------|- 
D|------------------------------------------------------------------------------------------|- 
A|------------------------------------------------------------------------------------------|- 
E|------------------------------------------------------------------------------------------|- 

E|-----------------------------------------------------------------13--12------|-- 
B|--------8--8/10--10--10--10--10h11p10--10--10--10h11p10--10--10----------10--|-- 
G|-----------------------------------------------------------------------------|-- 
D|-----------------------------------------------------------------------------|-- 
A|-----------------------------------------------------------------------------|-- 
E|-----------------------------------------------------------------------------|-- 
						 
E|------------------------------------------10--12--13------8/10--10--10--10--9--9--6--6\5--|-- 
B|--10--10--10h11p10--10--10--10h11p10--10--------------11----------------------------------|-- 
G|------------------------------------------------------------------------------------------|-- 
D|------------------------------------------------------------------------------------------|-- 
A|------------------------------------------------------------------------------------------|-- 
E|------------------------------------------------------------------------------------------|-- 

E|------------------------------------------------------------------------10--12--13----|- 
B|-10------10-10-10-10-10-10-10-10-10-10-10-10--10--10h11--10--6--6/8--10------------11-|- 
G|--------------------------------------------------------------------------------------|- 
D|--------------------------------------------------------------------------------------|- 
A|--------------------------------------------------------------------------------------|- 
E|--------------------------------------------------------------------------------------|- 

E|--7--7--7--7h9--9--9--9----10--10--10--10--12--12--13--15--17--17--17--17--|-- 
B|---------------------------------------------------------------------------|-- 
G|---------------------------------------------------------------------------|-- 
D|---------------------------------------------------------------------------|-- 
A|---------------------------------------------------------------------------|-- 
E|---------------------------------------------------------------------------|-- 

E|-17-15-13-15-13-12----|- 
B|-------------------14-|- 
G|----------------------|- 
D|----------------------|- 
A|----------------------|- 
E|----------------------|- 

Thats it I couldint tab the rest , Sorry :) 
share this page

See Also: