E-Chords
Mattrach

Se Déchirer Dans Sa Chambre(Tabs)

Mattrach

roll up this ad to continue


Verse: 

e|--10/13---------------------------------------| 
B|--------10-11~~---------10-11-----------------| 
G|-------------------9/12-------9/12-10~~-------| 
D|----------------------------------------------| 
A|----------------------------------------------| 
E|----------------------------------------------| 

e|----------------------------------------------| 
B|------6-8--10-11~~--------6-8--/13~-11-10-----| 
G|--5/7-----------------5/7---------------------| 
D|----------------------------------------------| 
A|----------------------------------------------| 
E|----------------------------------------------| 

e|--10/13---------------------------------------| 
B|--------10-11~~---------10-11-----------------| 
G|-------------------9/12-------9/12-10~~-------| 
D|----------------------------------------------| 
A|----------------------------------------------| 
E|----------------------------------------------| 

e|----------------------------------------------| 
B|------6-8--10-11--11/13-13-------6-8--/15-15b-| 
G|--5/7------------------------5/7--------------| 
D|----------------------------------------------| 
A|----------------------------------------------| 
E|----------------------------------------------|
 
Chorus: 

e|--17b18r--14b15-------------------------------| 
B|----------------------------------------------| 
G|---------------------------15-17~-------------| 
D|-------------------11/15----------------------| 
A|----------------------------------------------| 
E|----------------------------------------------| 

e|----------------------------------------------| 
B|----------------------------------------------| 
G|--10----10-10----10h12------------------------| 
D|--10h12-10-10h12-10---------------------------| 
A|----------------------------------------------| 
E|----------------------------------------------| 

e|----------------------------------------------| 
B|--11/15-18------------------------------------| 
G|-----------17~--11/15-14~~--------------------| 
D|----------------------------------------------| 
A|----------------------------------------------| 
E|----------------------------------------------| 


e|--17b18r17--14b15-----------------------------| 
B|----------------------------------------------| 
G|---------------------------1515-17------------| 
D|-------------------15h17----------------------| 
A|----------------------------------------------| 
E|----------------------------------------------| 

e|----------------------------------------------| 
B|----------------------------------------------| 
G|--10----10-10----10h12------------------------| 
D|--10h12-10-10h12-10---------------------------| 
A|----------------------------------------------| 
E|----------------------------------------------| 

e|----------------------------------------------| 
B|-11/15-18-18/19-------------------------------| 
G|----------------17~-11/15-14b15rbrbr----------| 
D|-------------------------------------12/15-17-| 
A|----------------------------------------------| 
E|----------------------------------------------| 

e|----------12h13p12----------------------------| 
B|----------------------------------------------| 
G|----------------------------------13h15p13-12-| 
D|-10/12\10-------------3---3-5-----------------| 
A|------------------3/5---5------3~~------------| 
E|----------------------------------------------| 
share this page

See Also: