E-Chords
Mary's Band

Carina(Tabs)

Mary's Band

Key: D
(INTRO)
E:-------------------------------------------------
B:-------------------------------------------------
G:---------------------------------42 22 22--------
D:------54 4-----54 4-----54-4--222--2--2----------
A:---555--5---444--4---222--2----------------------
E:-------------------------------------------------


(Parte quando começa a cantar)
E:------------------------------------------------
B:---7-----------------------7---------------10---
G:------7---79--11-7--7-6-------7---79--11-7------
D:------------------------------------------------
A:---5----------------7-7----5---------------7----
E:--------7-79--10-7--------------7-79--10-7------



D                A4
Hoje quero ver você sorrir
     Bm7              Em7        A4          D
E deixar rolar o sentimento que existe entre nós
              A4	        Bm7 		
E não ligar, apenas sentir o coração bater
    Em7          A4
E ouvir por sua voz
    G			 D/F#		 A	
A palavra que eu sempre quis que você dissesse a mim
Quero isso pra poder cantar
      G		      D	                    A
E um dia contar a verdade de como estou feliz

D	        A4
Não desejo machucar ninguém  
     Bm7    	       Em7          A4
Somente lhe peço que você me queira bem 
      D                 A4
Ao passar o dia contando os segundos
       Bm7		  Em     A4
Já não vejo a hora de ter a real do meu mundo

G		    D/F#          	        A
É preciso estarmos juntos com essa condição
                                    G
Fica claro quando eu canto essa canção
	          D
Mas não terá mais fim
	              A
Se você me der o seu corpo, a alma e o coração.

(SOLO)
E:------------------------------------------------
B:------------------------------------------------
G:---4-4444-6-7-7777-11-9-999999999999-------4-4444-6-7-7777-11-9-999999999999
D:-------------------------------------------------
A:---2-2222-4-5-5555-9--7-777777777777-------2-2222-4-5-5555-9--7-777777777777
E:--------------------------------------------------


E:----------------------------------------------------------------------------------------------
B:-----------------------------1717-171717-1717-171717------------------------------------------
G:---16-161616-18-19-19191919----------------------------16-16-1616-16-16-16-14-14-1414-14-14-14
D:-----------------------------1414-141414-1414-141414------------------------------------------
A:---14-141414-16-17-17171717----------------------------14-14-1414-14-14-14-12-12-1212-12-12-12
E:----------------------------------------------------------------------------------------------


E:-------------------------------------------------------------------------
B:-------------------------------------------------------------------------
G:---12-12-1212-12-12-12--15-15-1515-15-15-15--7-7--7-7-7-7--7-7-9-11------
D:-------------------------------------------------------------------------
A:---10-10-1010-10-10-10--13-13-1313-13-13-13--5-5--5-5-5-5--5-5-7-9-------
E:-------------------------------------------------------------------------

roll up this ad to continue

share this page

See Also: