E-Chords
Mary's Band

Abagabalô(Tabs)

Mary's Band

Key: Eb
 Intro: Eb, G#m,Fm,G#m

(Eb, Bbm,Fm,G#m) - Abafado
Foi me apresentado o último dos jamaicanos
Um amarelinho bem prensado que abalou o meu crânio
Mas isso não justifica o seu voto de castidade
Nessa noite só porque a baga me abalou

Eb    G#m           Fm    G#m
  A baga baga baga abagabalô (2x)

(Eb, Bbm,Fm,G#m) - Abafado
Penso alto, piso fundo, acelero muito
Não pago a conta, faço farra, queimo a minha barra
Ouvindo Mary?s Band e Mary caia na gandaia
A luz ofusca só porque a baga me abalou

Eb    G#m           Fm    G#m
  A baga baga baga abagabalô (2x)

(deixe soar o Eb)
Misturo a baga com a bebida, operação bem suicida
O olho longe, o corpo mole e a cabeça moída
Quero ir embora, vou pra casa, mostre só a saída
Se não entende é porque quem não bebe não teme

Eb    G#m           Fm    G#m
  A baga baga baga abagabalô (4x)

Riff 1

(Eb, Bbm,Fm,G#m) - + Abafado Ainda
Avorrai e o meu pai raí, minha mãe e o meu tio aqui
No meu quarto não estou morto não
Foi apenas a pressão que abaixou, abalô... 

Eb    G#m           Fm    G#m
  A baga baga baga abagabalô (4x)

Solo

Riff 2
Foi me apresentado o último dos jamaicanos
Um amarelinho bem prensado que abalou o meu crânio
--------------------------------------------------------------

Riff 1:
E|----------------------------\
B|----------------------------|
G|----------------------------|
D|-8-8-8-7--8-8-8-7--8-8-7----|
A|-------------------------8~-|
E|----------------------------/

Riff 2:
E|-----------------------\
B|-----------------------|
G|-----------------------|
D|----------7-7h8-7------|
A|-4-6~-------------8--6~|
E|-----------------------/

Solo:
E|------------------------------------------------------\
B|------------------------------------------------------|
G|------------------------------------------------------|
D|-8~-8~-8~-8~-8~--6------------------------------------|
A|------------------9-8-6~-6~--6~-6~-4------------------|
E|--------------------------------------7-4-6~-6~-4~-2~-/

E|------------------------------------------\
B|------------------------------------------|
G|-8~-8~-7~----------0~-8~-8~-8~-8~-8~-8/7~-|
D|---------8~-8~----------------------------|
A|---------------7~-------------------------|
E|------------------------------------------/

roll up this ad to continue

share this page

See Also: