E-Chords
Martin Garrix

Tremor(Tabs)

Martin Garrix

roll up this ad to continue

Intro  
|---------7-7-7-(X4)5-5-5-(X4)4-4-4-(X4)3-3-3-(X4)-------------------| 
|--------------------------------------------------------------------| 
|--------------------------------------------------------------------| 
|--------------------------------------------------------------------| 
|--------------------------------------------------------------------| 
|--------------------------------------------------------------------| 

Drop 
|--------------------------------------------------------------------| 
|--------------------------------------------------------------------| 
|--------------------------------------------------------------------| 
|----7-6-5-4-4-6-7-4/16--4-2-----------------------------------------| 
|----------------------------4-2--2-4-2------------------------------| 
|----------------------------------------5-2-------------------------| 

|--------------------------------------------------------------------| 
|--------------------------------------------------------------------| 
|--------------------------------------------------------------------| 
|--------7-6-5-4-4-6-7-4/16--4-2-----12-11-9-7-4---------------------| 
|--------------------------------4-2---------------------------------| 
|--------------------------------------------------------------------| 
share this page

See Also: