E-Chords
Martin Garrix

High On Life(Tabs)

Martin Garrix

roll up this ad to continue

Intro 

e|---------------------| 
B|---------------------| 
G|-2---------1-2---2-4-| 
D|-----4-2-------------| 
A|---------------------| 
E|---------------------| 


verse 1 
   Killed the demons of my mind 
e|-------------------| 
B|-------------------| 
G|-2-2-2-----2-2-2---| 
D|-------4-2---------| 
A|-------------------| 
E|-------------------| 

   Ever since you came around 
e|-------------------| 
B|-0-0-0-2-0---------| 
G|-----------2-------| 
D|-------------4-2---| 
A|-------------------| 
E|-------------------| 

   We're a river, running wild 
e|-------------------| 
B|-------------2-2---| 
G|-2-2-2-----2-------| 
D|-------4-2---------| 
A|-------------------| 
E|-------------------| 

   How could I have been so blind? 
e|---------0---------| 
B|-0-0-0-2---2-0-----| 
G|---------------2---| 
D|-------------------| 
A|-------------------| 
E|-------------------| 


Bridge 
   I just live a fast life 
e|-----------------| 
B|-0-0-0-0-0-------| 
G|-----------2-----| 
D|-----------------| 
A|-----------------| 
E|-----------------| 
   Forget about the past time 
e|-----------------| 
B|---0-0-0-0-0-----| 
G|-------------2---| 
D|-4---------------| 
A|-----------------| 
E|-----------------| 
   Numb out to escape my feels 
e|-----------------| 
B|-0-0-0-2-0-------| 
G|-----------2-----| 
D|-------------4-2-| 
A|-----------------| 
E|-----------------| 
   And friendships only pass by 
e|-----------------| 
B|---0-0-0-0-0-----| 
G|-2-----------2---| 
D|-----------------| 
A|-----------------| 
E|-----------------| 
   Show up, gone, like strobe lights 
e|-----------------| 
B|---0-0-0-0-0-----| 
G|-------------2---| 
D|-4---------------| 
A|-----------------| 
E|-----------------| 
   But with you, I feel something real 
e|-----------0-------| 
B|---0-0-0-2---2-0---| 
G|-2---------------2-| 
D|-------------------| 
A|-------------------| 
E|-------------------| 


Chorus 
   And I'd walk a million miles, just to see you smile, 'Til the day I die 
e|-----------0-0---------0-0-----------------| 
B|---2---0-------2---0-------2---0---3-2-----| 
G|-2-------2-----------2-----------2-----2-1-| 
D|-------------------------------------------| 
A|-------------------------------------------| 
E|-------------------------------------------| 
   Oh, I need you by my side, we get high on life, 'Til the day we die 
e|-------------0-0---------0-0-----------0-0-----| 
B|---2-2---0-------2---0-------2---0---3-----0---| 
G|-2---------2-----------2-----------2---------2-| 
D|-----------------------------------------------| 
A|-----------------------------------------------| 
E|-----------------------------------------------| 


Drop 

e|---------------0-0---------0-0-------------------| 
B|-2-2-2-2-2-0-------2-2-0-------2-2-0---3-2-------| 
G|-------------2-----------2-----------2-----2-2-1-| 
D|-------------------------------------------------| 
A|-------------------------------------------------| 
E|-------------------------------------------------| 

e|---------------0-0---------0-0---------5-7-4-2-0-| 
B|-2-2-2-2-2-0-------2-2-0-------2-2-0-------------| 
G|-------------2-----------2-----------2-----------| 
D|-------------------------------------------------| 
A|-------------------------------------------------| 
E|-------------------------------------------------| 


verse 2 
   Through my fingers, out of sight 
e|-------------------| 
B|-------------------| 
G|-2-2-2-----2-2-2---| 
D|-------4-2---------| 
A|-------------------| 
E|-------------------| 

   How could I have let you go? 
e|-----------------| 
B|-0-0-0-2-0-------| 
G|-----------2-----| 
D|-------------4-2-| 
A|-----------------| 
E|-----------------| 

   Cutting corners, turning stones 
e|-------------------| 
B|-------------2-2---| 
G|-2-2-2-----2-------| 
D|-------4-2---------| 
A|-------------------| 
E|-------------------| 

   But I can only see your ghost 
e|---------0-------| 
B|-0-0-0-2---2-0---| 
G|---------------2-| 
D|-----------------| 
A|-----------------| 
E|-----------------| 


Bridge 
   I just live a fast life 
e|-----------------| 
B|-0-0-0-0-0-------| 
G|-----------2-----| 
D|-----------------| 
A|-----------------| 
E|-----------------| 
   Forget about the past time 
e|-----------------| 
B|---0-0-0-0-0-----| 
G|-------------2---| 
D|-4---------------| 
A|-----------------| 
E|-----------------| 
   Numb out to escape my feels 
e|-----------------| 
B|-0-0-0-2-0-------| 
G|-----------2-----| 
D|-------------4-2-| 
A|-----------------| 
E|-----------------| 
   And friendships only pass by 
e|-----------------| 
B|---0-0-0-0-0-----| 
G|-2-----------2---| 
D|-----------------| 
A|-----------------| 
E|-----------------| 
   Show up, gone, like strobe lights 
e|-----------------| 
B|---0-0-0-0-0-----| 
G|-------------2---| 
D|-4---------------| 
A|-----------------| 
E|-----------------| 
   But with you, I feel something real 
e|-----------0-------| 
B|---0-0-0-2---2-0---| 
G|-2---------------2-| 
D|-------------------| 
A|-------------------| 
E|-------------------| 


Chorus 
   And I'd walk a million miles, just to see you smile, 'Til the day I die 
e|-----------0-0---------0-0-----------------| 
B|---2---0-------2---0-------2---0---3-2-----| 
G|-2-------2-----------2-----------2-----2-1-| 
D|-------------------------------------------| 
A|-------------------------------------------| 
E|-------------------------------------------| 
   Oh, I need you by my side, we get high on life, 'Til the day we die 
e|-------------0-0---------0-0-----------0-0-----| 
B|---2-2---0-------2---0-------2---0---3-----0---| 
G|-2---------2-----------2-----------2---------2-| 
D|-----------------------------------------------| 
A|-----------------------------------------------| 
E|-----------------------------------------------| 


Drop 

e|---------------0-0---------0-0-------------------| 
B|-2-2-2-2-2-0-------2-2-0-------2-2-0---3-2-------| 
G|-------------2-----------2-----------2-----2-2-1-| 
D|-------------------------------------------------| 
A|-------------------------------------------------| 
E|-------------------------------------------------| 

e|---------------0-0---------0-0---------5-7-4-2-0-| 
B|-2-2-2-2-2-0-------2-2-0-------2-2-0-------------| 
G|-------------2-----------2-----------2-----------| 
D|-------------------------------------------------| 
A|-------------------------------------------------| 
E|-------------------------------------------------| 

e|---------------0-0---------0-0-------------------| 
B|-2-2-2-2-2-0-------2-2-0-------2-2-0---3-2-------| 
G|-------------2-----------2-----------2-----2-2-1-| 
D|-------------------------------------------------| 
A|-------------------------------------------------| 
E|-------------------------------------------------| 

e|---------------0-0---------0-0-------------------| 
B|-2-2-2-2-2-0-------2-2-0-------2-2-0---3-2-0-----| 
G|-------------2-----------2-----------2---------2-| 
D|-------------------------------------------------| 
A|-------------------------------------------------| 
E|-------------------------------------------------| 
share this page

See Also: