E-Chords
Marco Barrientos

Hosana(Tabs)

Marco Barrientos

Key: B
INTRO 
       B           G         F#         A         F#        E 
    E||-------------------------------|-----------------------------|      
    B||-------------------------------|-----------------------------|      
    G||-----------12--12--12--11--11--|-----------11--11--11--9--9--|      
    D||--9--9--9----------------------|--7--7--7--------------------|      
    A||-------------------------------|-----------------------------|      
    E||-------------------------------|-----------------------------|      


     A         E        D        B       C#    D   E 
    --------------------------|--------------------------|      
    --------------------------|--------------------------|      
    -----------9--9--9--7--7--|-----------6--6--6--7--9--|      
    --7--7--7-----------------|--9--9--9-----------------|      
    --------------------------|--------------------------|      
    --------------------------|--------------------------|      


este es el solo es 100% original 

    --12--12--12--12--12--12--12--12--|      
    ----------------------------------|      
    ----------------------------------|      
    ----------------------------------|      
    ----------------------------------|      
    ----------------------------------|      


    --10--10--10--10------------------|--12--12--12--12--12--12--12--12--|      
    ------------------10--10--10--10--|----------------------------------|      
    ----------------------------------|----------------------------------|      
    ----------------------------------|----------------------------------|      
    ----------------------------------|----------------------------------|      
    ----------------------------------|----------------------------------|      



    --10--10--10--10------------------|--12--12--12--12--12--12--12--12--|      
    ------------------10--10--10--10--|----------------------------------|      
    ----------------------------------|----------------------------------|      
    ----------------------------------|----------------------------------|      
    ----------------------------------|----------------------------------|      
    ----------------------------------|----------------------------------|      



    --10--10--10--10------------------|--14--14--14--14--14--14--12--13--|      
    ------------------10--10--10--10--|----------------------------------|      
    ----------------------------------|----------------------------------|      
    ----------------------------------|----------------------------------|      
    ----------------------------------|----------------------------------|      
    ----------------------------------|----------------------------------|      


    --15--13--12-------------------|--12--12--12--10--10--10--9--9--|      
    --------------14-----12--------|--------------------------------|      
    -------------------------------|--------------------------------|      
    -------------------------------|--------------------------------|      
    -------------------------------|--------------------------------|      
    -------------------------------|--------------------------------|      



    --9------------------9--10-----|--12--12--12--10--10--10--9--9--|      
    -----------------11------------|--------------------------------|      
    -----11--11--11----------------|--------------------------------|      
    -------------------------------|--------------------------------|      
    -------------------------------|--------------------------------|      
    -------------------------------|--------------------------------|      



    --9-----------10--12--12--10--11--|--14--14--14--14--14--14--12--13--|      
    -----10h--12----------------------|----------------------------------|      
    ----------------------------------|----------------------------------|      
    ----------------------------------|----------------------------------|      
    ----------------------------------|----------------------------------|      
    ----------------------------------|----------------------------------|      



    --17--17--17--17--17--17--15--16--|--19--19--19--19--19--19--19--19--|      
    ----------------------------------|----------------------------------|      
    ----------------------------------|----------------------------------|      
    ----------------------------------|----------------------------------|      
    ----------------------------------|----------------------------------|      
    ----------------------------------|----------------------------------|      



    ---------------------------14v----|      
    --20p--18-------------------------|      
    -----------20----18----16---------|      
    ----------------------------------|      
    ----------------------------------|      
    ----------------------------------|      

roll up this ad to continue

share this page

See Also: