E-Chords
Marcão Britto

Não Estamos Sozinhos(Tabs)

Marcão Britto

roll up this ad to continue

Key: Eb
Intro 
 
Eb|----4-------------|----------------------| 
Bb|--------2--4--5---|--5--4---2------------| 
Gb|------------------|------------4---------| 
Db|------------------|----------------------| 
Ab|--4---4---4--4----|-2--2---2-------------| 
Eb|------------------|----------------------| 
 

 
Eb|-------------------------|-------------0------------| 
Bb|-------------------------|---------------0----------| 
Gb|-----3---1---3-----------|----3------------3--------| 
Db|-----------------2-------|--------2-----------------| 
Ab|-------------------------|--------------------------| 
Eb|---2---2---2---2---------|--2---2----2--------------| 
 

Riff 1 
 
Eb|-----------------------------|--------------------------| 
Bb|-----------------------------|--------------------------| 
Gb|-----------------------------|--------------------------| 
Db|-----------------------------|----------7-6-4-4-2-1-----| 
Ab|--4-4------------------------|----------------------2---| 
Eb|-------x-x-0-2-4-4-x-x-x-x---|-2-2--x-x-----------------| 
 

Riff 2 (Esta Parte é tocada antes do refrão) 
 
Eb|-----------------------------|--------------------------| 
Bb|-----------------------------|--------------------------| 
Gb|-----------------------------|--------------------------| 
Db|-----------------------------|--------------------------| 
Ab|--4-4------------------------|--------------------------| 
Eb|-------x-x-0-2-4-4-x-x-x-x---|-2-2--x-x--5-4-2-2-x-x-x-x| 
 

Refrão 
 
Eb|---4-----4------4------4------2----2---------------------| 
Bb|-----5-----5------5------5------4----4-------------------| 
Gb|---------------------------------------------------------| 
Db|---------------------------------------------------------| 
Ab|--0-----0-----0------------------------------------------| 
Eb|---------------------4------4----------------------------| 
 

 
Eb|----4-----4-----7------5-------4----------------| 
Bb|------5-----5-----5------5-------5--------------| 
Gb|------------------------------------------------| 
Db|------------------------------------------------| 
Ab|----4----4----4--------2----2-------------------| 
Eb|------------------------------------------------| 
 



 
Eb|---4-----4------4------4------2----2---------------------| 
Bb|-----5-----5------5------5------4----4-------------------| 
Gb|---------------------------------------------------------| 
Db|---------------------------------------------------------| 
Ab|--0-----0-----0------------------------------------------| 
Eb|---------------------4------4----------------------------| 
 

Eb|---4-------4------7----7------7--------------------------| 
Bb|-----5-------5------5----7------7----7-------------------| 
Gb|---------------------------------------------------------| 
Db|---------------------------------------------------------| 
Ab|---4-----4------4------7---7-------7---------------------| 
Eb|---------------------------------------------------------| 
share this page

See Also: