E-Chords
Marc Ferr

Die For Love (solo)(Tabs)

Marc Ferr

roll up this ad to continue

           
e|--------------------------------------| 
B|--------------------------------------| 
G|--7/9~---9-11-12-9~--9-11-12-11~------| 
D|--------------------------------------| 
A|--------------------------------------| 
E|--------------------------------------| 

e|--------------------------------------| 
B|--------------------------------------| 
G|-----9-11-12-12~----12-11-9\7-9~------| 
D|--------------------------------------| 
A|--------------------------------------| 
E|--------------------------------------| 

e|--------------------------------------| 
B|-------------------10-12b-------------| 
G|--9-11-12-9~---9-12-------------------| 
D|--------------------------------------| 
A|--------------------------------------| 
E|--------------------------------------| 


 Esse  meu msn [email protected] 
 Serraria - PB
share this page

See Also: