E-Chords
Manu Dibango

Soul makossa(Tabs)

Manu Dibango

roll up this ad to continue

        Verse: 
 
G:-----------------4-| 
D:-----------5---5---| -repeat as needed- 
A:-------------5-----| 
E:-3-1-3-------------| 
 
 
 
Chorus: 
 
G:--5-5--3-----------------------------------| 
D:----------5--3----------------------3------| 
A:----------------6--3----3------3--6---6--3-| 
E:----------------------6--------------------| 
 
 

        
share this page

See Also: