E-Chords
Man Overboard

The Absolute Worst(Tabs)

Man Overboard

roll up this ad to continue

Tuning: C# 

Intro 
   Lead 
e|---------------------------------------------------------------------------| 
B|---------------------------------------------------------------------------| 
G|-------66-----------77-----------------------------------------------------| 
D|----77----77-----77----77--------------------------------------------------| 
A|-55-----------55-----------------------------------------------------------| 
E|---------------------------------------------------------------------------| 

	(x2) 
e|---------------------------------------------------------------------------| 
B|---------------------------------------------------------------------------| 
G|--------66-----------77-----------66-----------77--------------------------| 
D|-----77----77-----77----77-----77----77----77----77------------------------| 
A|-55------------77----------------------------------------------------------| 
E|----------------------------99----------55---------------------------------| 

   Rhythm 
	ALTERNATE PICKING 
	(x2) 
e|---------------------------------------------------------------------------| 
B|---------------------------------------------------------------------------| 
G|-7----------9----------4---------------------------------------------------| 
D|-7----------9----------4----------5----------------------------------------| 
A|-5----------7----------2----------5----------------------------------------| 
E|-0--------------------------------5----------------------------------------| 

Verse 
e|---------------------------------------------------------------------------| 
B|------------------------------------(5)HARMONIC----------------------------| 
G|-7----------------4--------------------------------------------------------| 
D|-7-LET RING OUT---4-PAUSE-----5555555--------------------------------------| 
A|-5----------------2-----------5555555--------------------------------------| 
E|-0----------------------------5555555--------------------------------------| 
					          ****** 
PRECHORUS 
	Staccato 
e|---------------------------------------------------------------------------| 
B|---------------------------------------------------------------------------| 
G|-7-7-7-7-7-7-7-7--4-4-4-4-----------7-7-7-7-7-7-7-7--4444------------------| 
D|-7-7-7-7-7-7-7-7--4-4-4-4--5-5-5-5--7-7-7-7-7-7-7-7--4444?-5555------------| 
A|-5-5-5-5-5-5-5-5--2-2-2-2--5-5-5-5--5-5-5-5-5-5-5-5--2222--5555------------| 
E|-0-0-0-0-0-0-0-0-----------5-5-5-5--0-0-0-0-0-0-0-0--------5555------------| 
NORMAL PICKING 

CHORUS 
	ALTERNATE PICKING 
e|---------------------------------------------------------------------------| 
B|---------------------------------------------------------------------------| 
G|-77777777--4444------------------4444--------------------------------------| 
D|-77777777--4444--5555--77777777--4444?-55-------55-------------------------| 
A|-55555555--2222--5555--55555555--2222?-55PAUSE?-55PAUSE--------------------| 
E|-00000000--------5555--00000000--------55-------55-------------------------| 

	(x2) 
e|---------------------------------------------------------------------------| 
B|---------------------------------------------------------------------------| 
G|-------9999--4444----------------------------------------------------------| 
D|-7777--9999--4444--5555----------------------------------------------------| 
A|-5555--7777--2222--5555----------------------------------------------------| 
E|-0000--------------5555----------------------------------------------------| 

VERSE 

e|---------------------------------------------------------------------------| 
B|-----------------------------(5)HARMONIC-----------------------------------| 
G|-7-------------------------------------------------------------------------| 
D|-7-RING OUT--XXXX-----5555555----------------------------------------------| 
A|-5-----------XXXX-----5555555----------------------------------------------| 
E|-0-----------XXXX-----5555555----------------------------------------------| 

PRECHORUS 
	Staccato 
e|---------------------------------------------------------------------------| 
B|---------------------------------------------------------------------------| 
G|-7-7-7-7-7-7-7-7--4-4-4-4-----------7-7-7-7-7-7-7-7--4444------------------| 
D|-7-7-7-7-7-7-7-7--4-4-4-4--5-5-5-5--7-7-7-7-7-7-7-7--4444?-5555------------| 
A|-5-5-5-5-5-5-5-5--2-2-2-2--5-5-5-5--5-5-5-5-5-5-5-5--2222--5555------------| 
E|-0-0-0-0-0-0-0-0-----------5-5-5-5--0-0-0-0-0-0-0-0--------5555------------| 
	NORMAL PICKING 
CHORUS 
	ALTERNATE PICKING 
e|---------------------------------------------------------------------------| 
B|---------------------------------------------------------------------------| 
G|-77777777--4444------------------4444--------------------------------------| 
D|-77777777--4444--5555--77777777--4444?-55-------55-------------------------| 
A|-55555555--2222--5555--55555555--2222?-55PAUSE?-55PAUSE--------------------| 
E|-00000000--------5555--00000000--------55-------55-------------------------| 

INTERLUDE 
  Rhythm 
	(x2) 
e|---------------------------------------------------------------------------| 
B|---------------------------------------------------------------------------| 
G|-----9~--4~----------------------------------------------------------------| 
D|-7~--9-~-4~--5~------------------------------------------------------------| 
A|-5~--7~--2~--5~------------------------------------------------------------| 
E|-0~----------5~------------------------------------------------------------| 

  Lead 
(x2) PALM MUTE 
e|---------------------------------------------------------------------------| 
B|---------------------------------------------------------------------------| 
G|--------66-----------77-----------66-----------77--------------------------| 
D|-----77----77-----77----77-----77----77----77----77------------------------| 
A|-55------------77----------------------------------------------------------| 
E|----------------------------99----------55---------------------------------| 

  Lead 
	(x2) NORMAL 
e|---------------------------------------------------------------------------| 
B|---------------------------------------------------------------------------| 
G|--------66-----------77-----------66-----------77--------------------------| 
D|-----77----77-----77----77-----77----77----77----77------------------------| 
A|-55------------77----------------------------------------------------------| 
E|----------------------------99----------55---------------------------------| 

OUTRO 
	ALTERNATE PICKING 
e|---------------------------------------------------------------------------| 
B|---------------------------------------------------------------------------| 
G|-77777777--4444------------------4444--------------------------------------| 
D|-77777777--4444--5555--77777777--4444?-55-------55-------------------------| 
A|-55555555--2222--5555--55555555--2222?-55PAUSE?-55PAUSE--------------------| 
E|-00000000--------5555--00000000--------55-------55-------------------------| 

e|---------------------------------------------------------------------------| 
B|---------------------------------------------------------------------------| 
G|-77777777--4444------------------4444--------------------------------------| 
D|-77777777--4444--5555--77777777--4444?-5555--777---------------------------| 
A|-55555555--2222--5555--55555555--2222?-5555--555---------------------------| 
E|-00000000--------5555--00000000--------5555--000---------------------------| 
 
share this page

See Also: